Boehse Onkelz Tabs

Koma

1 versions

TAB

            Koma (eine Nacht die niemals endet)

in the intro you play first e than h

intro/verse


e |-8-------8-------8p7---7-----5--||---5-----5-----5----------------|
h |-9-------9-------8-----8-----6--||---6-----6-----6----------------|
g |-----10------10-----7-----7-----||5-----5-----5-------------------|
D |--------------------------------||--------------------------------|
A |--------------------------------||--------------------------------|
E |--------------------------------||--------------------------------|


chorus

e |--------------------------------||--------------------------------|
h |--------------------------------||--------------------------------|
g |-2-----------5-x-x-5------------||--------------------------------|
D |-2-----3-----5-x-x-5------------||--------------------------------|
A |-0-----3-----3-x-x-3------------||--------------------------------|
E |-------1------------------------||--------------------------------|




for correction or anything else send an e-mail to jan-bro@web.de    

Added On December 16th, 2013

SHARE

Comments

blog comments powered by Disqus

ADVERTISEMENT