Born From Pain Tabs

Renewal

1 versions

TAB

            -------------------------------------------------------------------------------
			  Renewal - Born From Pain
-------------------------------------------------------------------------------

ARTIST   : Born From Pain
SONG     : Renewal
ALBUM    : In Love With The End
TABBED BY: h8urlife
TUNING   : Standard  C# G# C# F# A# D# 


Verse:

D#|----------------------------------------------------------|
A#|----------------------------------------------------------|
F#|----------------------------------------------------------|
C#|----------------------------------------------------------|---| 
G#|-8-7-----------8-7------8-10-----8-7----------------------|   |
C#|-6-5-000000000-6-5-0000-6-8-0000-6-5-00000000000055558888-|   |
        .........     ....     ....     ....................     |
                                                                 |(2x)
D#|----------------------------------------------------------|   |
A#|----------------------------------------------------------|   |
F#|----------------------------------------------------------|   |
C#|---------------------------------------------------5--7---|---| 
G#|-8-7-----------8-7------8-10-----8-7---------------3--5---|
C#|-6-5-000000000-6-5-0000-6-8-0000-6-5-000000000000---------|
        .........     ....     ....     ............




                     (2x)
D#|--------------------------------------------|
A#|--------------------------------------------|
F#|--------------------------------------------|
C#|--------------------------------------5-7-7-| 
G#|-2-2-2-5-3-4-2~--2--2-2-2-5-3-4-2~--2-3-5-5-|
C#|-0-0-0-3-1-2-0~--0--0-0-0-3-1-2-0~--0-------|
    . . . . . . .   .  . . . . . . .   .  




Refrain:
                           (2x)
D#|------------------------------------------------------------|
A#|------------------------------------------------------------|
F#|------------------------------------------------------------|
C#|-5-5---------------------------5-5------------6-6-6-8-8-8-8-| 
G#|-3-3---5----6---6-6-6-8-8-8-8--3-3---5----6-----------------|
C#|-----0-3--0-4----------------------0-3--0-4-----------------|
        .    .                        .    .        




Verse:

D#|----------------------------------------------------------|
A#|----------------------------------------------------------|
F#|----------------------------------------------------------|
C#|----------------------------------------------------------|---| 
G#|-8-7-----------8-7------8-10-----8-7----------------------|   |
C#|-6-5-000000000-6-5-0000-6-8-0000-6-5-00000000000055558888-|   |
        .........     ....     ....     ....................     |
                                                                 |(2x)
D#|----------------------------------------------------------|   |
A#|----------------------------------------------------------|   |
F#|----------------------------------------------------------|   |
C#|---------------------------------------------------5--7---|---| 
G#|-8-7-----------8-7------8-10-----8-7---------------3--5---|
C#|-6-5-000000000-6-5-0000-6-8-0000-6-5-000000000000---------|
        .........     ....     ....     ............




Refrain:
                           (2x)
D#|------------------------------------------------------------|
A#|------------------------------------------------------------|
F#|------------------------------------------------------------|
C#|-5-5---------------------------5-5------------6-6-6-8-8-8-8-| 
G#|-3-3---5----6---6-6-6-8-8-8-8--3-3---5----6-----------------|
C#|-----0-3--0-4----------------------0-3--0-4-----------------|
        .    .                        .    .        




                     (2x)
D#|--------------------------------------------|
A#|--------------------------------------------|
F#|--------------------------------------------|
C#|--------------------------------------5-7-7-| 
G#|-2-2-2-5-3-4-2~--2--2-2-2-5-3-4-2~--2-3-5-5-|
C#|-0-0-0-3-1-2-0~--0--0-0-0-3-1-2-0~--0-------|
    . . . . . . .   .  . . . . . . .   .  





Outro:

                              (4x)
D#|---------------------------------------------------------------|
A#|---------------------------------------------------------------|
F#|---------------------------------------------------------------|
C#|---------------------------------------------------------5-7-7-| 
G#|---------------------------------------------------------3-5-5-|
C#|-000-000-3-1-2-0-000-000-1-0-000-000-000-3-1-2-0-000-000-------|
    ... ... . . . . ... ... . . ... ... ... . . . . ... ... 






BFP rulez!!!

www.bornfrompain.com    

Added On December 16th, 2013

SHARE

Comments

blog comments powered by Disqus

ADVERTISEMENT