Born From Pain Tabs

Under False Flag

1 versions

TAB

            ARTIST   : Born From Pain
SONG     : Under False Flag
ALBUM    : Survival
TABBED BY: h8urlife
TUNING   : B F# B E G# C# 



Verse:
                           (6x)
C#|-----------------------------------------------------------|
G#|-----------------------------------------------------------|
E |-----------------------------------------------------------|
B |-------------------------------------------------------3-2-| 
F#|-2-1-------------2-1-------------2-1--------------4-3--1-0-|
B |-2-1-1-1-1-1-1-1-2-1-1-1-1-1-1-1-2-1-1-1-1-1-1-1--4-3------|
        . . . . . .     . . . . . .     . . . . . .   




Refrain:
                    (1x)
C#|-------------------------------------------|
G#|-------------------------------------------|
E |-8---7-------7---5-------8---7-------3---5-|
B |---------7-----------7-----------7---------| 
F#|-6---5-------5---3-------6---5-------5---3-|
B |---------7-----------7-----------7---------|
         



Verse:
                           (2x)
C#|-----------------------------------------------------------|
G#|-----------------------------------------------------------|
E |-----------------------------------------------------------|
B |-------------------------------------------------------3-2-| 
F#|-2-1-------------2-1-------------2-1--------------4-3--1-0-|
B |-2-1-1-1-1-1-1-1-2-1-1-1-1-1-1-1-2-1-1-1-1-1-1-1--4-3------|
        . . . . . .     . . . . . .     . . . . . .




Refrain:
                    (1x)
C#|-------------------------------------------|
G#|-------------------------------------------|
E |-8---7-------7---5-------8---7-------3---5-|
B |---------7-----------7-----------7---------| 
F#|-6---5-------5---3-------6---5-------5---3-|
B |---------7-----------7-----------7---------|  


            (2x)
C#|------------------------|
G#|------------------------|
E |------------------------|
B |-12---11--7---10--9---7-| 
F#|-10---9---5---8---7---5-|
B |------------------------|





Breakdown:

             (11x)
C#|----------------------------|
G#|----------------------------|
E |----------------------------|
B |-----------------7-5--8-5-8-| 
F#|-------1-----0---5-3--6-3-6-|
B |-0-0-0-1-0-0-0-0------------|
    . . .   . .   .




Refrain:
                    (1x)
C#|-------------------------------------------|
G#|-------------------------------------------|
E |-8---7-------7---5-------8---7-------3---5-|
B |---------7-----------7-----------7---------| 
F#|-6---5-------5---3-------6---5-------5---3-|
B |---------7-----------7-----------7---------|  


            (2x)
C#|------------------------|
G#|------------------------|
E |------------------------|
B |-12---11--7---10--9---7-| 
F#|-10---9---5---8---7---5-|
B |------------------------|




End:
                           (2x)
C#|-----------------------------------------------------------|-----|
G#|-----------------------------------------------------------|-----|
E |-----------------------------------------------------------|-----|
B |-------------------------------------------------------3-2-|-----|
F#|-2-1-------------2-1-------------2-1--------------4-3--1-0-|-2-1-|
B |-2-1-1-1-1-1-1-1-2-1-1-1-1-1-1-1-2-1-1-1-1-1-1-1--4-3------|-2-1-|
        . . . . . .     . . . . . .     . . . . . .





BFP rulez!!!

www.bornfrompain.com    

Added On December 16th, 2013

SHARE

Comments

blog comments powered by Disqus

ADVERTISEMENT