Bouncing Souls Tabs

True Believers

4 versions

TAB

            True Believers Tab by Bouncing Souls


------------------------------------------------------------
Bouncing Souls - True Believers
------------------------------------------------------------

By: Derek

Three chords used:
e |---------------|
B |---------------|
G |-------5-------|
D |---3---5---5---|
A |---3---3---5---|
E |---1-------3---|

Listen to the song to figure out the rhythm.

Solos:
e |-------------------------------------------------------|
B |-------------------------------------------------------|
G |-------------------------------------------------------|
D |-----------------------2-0-0---0---0-2-0-0-0---3-3-3---|
A |---------2-3-3-2-3-2-3-------3---3-----------3-------3-|
E |-1-1-1-1-----------------------------------------------|

e |-1-1-1-1-0-0-0-0---------------0---------1-1-1---------|
B |-----------------1-3-3-1-3-1-3---3-3-3-1-------1-------|
G |-------------------------------------------------------|
D |-------------------------------------------------------|
A |-------------------------------------------------------|
E |-------------------------------------------------------|

e |-1-1-1-1-1-1-3-0---------------------------------------|
B |-----------------3-1-1-1-1-3-3-1-3---------------------|
G |-------------------------------------------------------|
D |-------------------------------------------------------|
A |-------------------------------------------------------|
E |-------------------------------------------------------|

The chord progression is the same through the whole song, except for the very last time 
when it's played G, F, C instead of F, C, G.    

Added On December 4th, 2013

SHARE

Comments

blog comments powered by Disqus

VERSIONS

ADVERTISEMENT