Bowling For Soup Tabs

I Ran So Far Away

2 versions

TAB

            I Ran So Far Away Tab by Bowling For Soup


Intro -
--------------------------------------------------------------------------------|
--------------------------------------------------------------------------------|
------------------------------------------------------------------------999-7---|
--7-----------------------------------------------------5---------------------7-|
--7-----------------------------------------------------5-----------------------|
--5-----------------------------------------------------3-----------------------|
p.m......I walked along the avenue       ...girl like you (x2).....


chorus -
--------------                           -------------------------------------|
--------------                           -------------------------------------|
--------------                           --14-(echos)-------------------------|
-3-------5----                           -------------------------------------|
-3-------5----                           -------------------------------------|
-1-------3----                           -------------------------------------|
..........................couldnt get away

verses -
guitar 1:          guitar 2:              guitar 3:
---------------    ------------------     -------------------------|
---------------    ------------------     -------------------------|
---------------    -14-(echos)--12---     --999-7------------------|
-7---------5---    ------------------     --------7----------------|
-7---------5---    ------------------     -------------------------|
-5---------3---    ------------------     -------------------------|

solo -
----------------------------------------------------------------------------|
--------------------15-13-12-13-(x2)-16-14-13-14-(x2)17-15-14-15------------|
-14-14-14-12-12-12----------------------------------------------------------|
----------------------------------------------------------------------------|
----------------------------------------------------------------------------|
----------------------------------------------------------------------------|

i know that the solo is screwed up but it's in the ball park.  this is my first tab and 
plan on doing much more.  pretty easy song, and is much better than the original.    

Added On December 4th, 2013

SHARE

Comments

blog comments powered by Disqus

VERSIONS

ADVERTISEMENT