Brand New Tabs

Jesus Christ

7 versions

TAB

            Jesus Christ Tab by Brand New


Artist: Brand New
Song Title: Jesus Christ
Album: The Devil and God are Raging Inside of Me
Tabbed by: SilverTab (phpcode@gmail.com)
Desc: This is only the intro/verse and the solo (which pretty much makes up all the song).
It's similar to the other versions, but it's easier to play that way, and the ending of the
solo is a bit different than the other versions...


Intro/Verse: (Jesse plays that during the whole song)

e-------------------------------------------------------------------|
B--------10----------10-----------10-----------10-------------------|
G------7----7-----7-----7-----7-------7-----7-----7-----------------|
D---9----------9-----------9-------------9--------------------------|
A-------------------------------------------------------------------|
E-------------------------------------------------------------------|


e-------------------------------------------------------------------|
B--------10----------10-----------10-----------10-------------------|
G------7----7-----7-----7-----7-------7-----7-----7-----------------|
D---7----------7-----------7-------------7--------------------------|
A-------------------------------------------------------------------|
E-------------------------------------------------------------------|


Solo(Intro):


e-------------------------------------------------------------------|
B-------------------------------------------------------------------|
G---9---7--9/11---------6---7/9-------------------------------------|  (x3)
D-----------------9--7----------------------------------------------|
A-------------------------------------------------------------------|
E-------------------------------------------------------------------|



e-------------------------------------------------------------------|
B-------------------------------------------------------------------|
G---9---7--9/11-----------------------------------------------------|  (x1)
D-----------------9--7--5--4--4b~-----------------------------------|
A-------------------------------------------------------------------|
E-------------------------------------------------------------------|


Solo(Later):
It's the same as the intro solo, but there is a new part:

e-------------------------------------------------------|
B-------------------------------------------------------|
G---9---7--9/11---------6---7/9-------------------------|  (x3)
D-----------------9--7----------------------------------|
A-------------------------------------------------------|
E-------------------------------------------------------|

e-------------------------------------------------------|
B-------------------------------------------------------|
G---9---7--9/11-----------------------------------------|  (x1)
D-----------------9--7--5--4--4b~-----------------------|
A-------------------------------------------------------|
E-------------------------------------------------------|

e-------------------------------------------------------|
B-------------------------------------------------------|
G-------------------------------------------------------|  (x1)
D----9-9-9---7---5--4h5p4-----2/4-----------------------|
A-------------------------------------------------------|
E-------------------------------------------------------|

e-------------------------------------------------------|
B-------------------------------------------------------|
G-------------------------------------------------------|  (x1)
D----9-9-9---7---5--4b~---------------------------------|
A-------------------------------------------------------|
E-------------------------------------------------------|

e-------------------------------------------------------|
B-------------------------------------------------------|
G-------------------------------------------------------|  (x1)
D----9-9-9---7---5--4h5p4-----2/4-----7p4----2h4p2h4p2--|
A-------------------------------------------------------|
E-------------------------------------------------------|


Enjoy!    

Added On December 4th, 2013

SHARE

Comments

blog comments powered by Disqus