Brand New Tabs

Me Vs Maradonna Vs Elvis

3 versions

TAB

            Me Vs Maradonna Vs Elvis Tab by Brand New


Brand New - Me Vs. Maradonna Vs. Elvis
By:Andrew (Guitarguyx182@aol.com)

Verse
e|---------------------------------------------------------------------------|
B|---------------------------------------------------------------------------|
G|-6-5-----------------------------------------------------------------------|
D|-6-6-8-6-11-10-8-6---------------------------------------------------------|
A|-4-4-4-4-9--9--9-9---------------------------------------------------------|
E|---------------------------------------------------------------------------|

e|---------------------------------------------------------------------------|
B|---------------------------------------------------------------------------|
G|---------------------------------------------------------------------------|
D|-------------or-10-11-15-13------------------------------------------------|
A|-3-4-8-6--------8--9--13-11------------------------------------------------|
E|-1-2-6-4-------------------------------------------------------------------|
Bridge
e|---------------------------------------------------------------------------|
B|---------------------------------------------------------------------------|
G|---------------------------------------------------------------------------|
D|-10-----10---------------x2------------------------------------------------|
A|-------------------6-----------3-4-6-3-6-----------------------------------|
E|------9-------9----4-----------1-2-4-1-4-----------------------------------|
Then Guitar one does verse

Guitar 2 does this with distortion
e|---------------------------------------------------------------------------|
B|---------------------------------------------------------------------------|
G|-6---------------8---------------------------------------------------------|
D|-6----4----x4----8--4-----6-6-6--------------------------------------------|
A|-4----4----------6--4-----4-4-4--8-6---------------------------------------|
E|------2-------------2------------6-4---------------------------------------|    

Added On December 4th, 2013

SHARE

Comments

blog comments powered by Disqus

VERSIONS

ADVERTISEMENT