Brand New Tabs

Mix Tape

4 versions

TAB

            Mix Tape Tab by Brand New


----------------------------------------------------------------------------
			     Mix Tape - Brand New
----------------------------------------------------------------------------
Tabbed by: Theo	
Email: wsw30goalie@hotmail.com

Tuning: Guitar 1- 1/2 step down
	Guitar 2- 1/2 step down

	Into/ Verse:
    Guitar 1
eb|---------------------------------|
Bb|---2--2--2--2--2--2--2--0--0--0--|
Gb|--2--2--2--2--2--2--2--2--2--2---|   x8
Db|-2--2--2--2--2--0--0--0--0--0----|  
Ab|---------------------------------|
Eb|---------------------------------|
    Guitar 2- enter on the 8th repeat on the part "we used..."
eb|---------------------------------|
Bb|---------------------------------|
Gb|---------------------------------|   
Db|---7-palm mute-------------------|   x16
Ab|---5-----------------------------|
Eb|---------------------------------|
      


	Interlude
    Guitar 1
eb|-------------------------------------------------------------------|
Bb|-------------------------------------------------------------------|
Gb|--2---------7------------------------------------------------------|  x2
Db|--2-x8------7-x8---------------------------------------------------|
Ab|--0---------5------------------------------------------------------|
Eb|-------------------------------------------------------------------|     

    Guitar 2
eb|-------------------------------------------------------------------|
Bb|--------------------------------------------3-----3-----/77777646--|
Gb|------2-----2-------------------------------2-----2----------------|  x4
Db|------2-----2-----2h4p2---2h4p2---2h4p2-----0-----0----------------|
Ab|--0-0-0-0-0-0-0-0-------0-------0-------0-0-0-0-0-0-0-0------------|
Eb|-------------------------------------------------------------------|
     x x   x x   x x       x       x       x x   x x   x x

*note that guitar 1 plays it's part 2x with guitar 2, then guitar 2 plays alone for another 2x 


Repeat as needed, enjoy

| /  slide up
| h  hammer-on
| p  pull-off
| x  Mute note
============================================================================    

Added On December 4th, 2013

SHARE

Comments

blog comments powered by Disqus

VERSIONS

ADVERTISEMENT