Brand New Tabs

Trees Brick House

1 versions

TAB

            -------------------------------------------------------------------------------
			    TREES/BRICKHOUSE - BRAND NEW
-------------------------------------------------------------------------------
Tabbed by: austinarcadium
Email: elementbam22@gmail.com

Tuning:EADGBe

Im pretty sure this is how to play it. The number of times you hit each string might be 
Just listen to figure it out

The bridge might be a little off.
Song tabbed from this taken from this video: http://www.youtube.com/watch?v=aAKbqNxf-I0

Verse:
e|----------------------------------------------------------------------------|
B|----------------------------------------------------------------------------|
G|----------------------------------------------------------------------------|
D|------5-------5-------7--------7---------5----------5----------5--------5---|
A|-5h7------7-------7-------7--------7----------7-----------7---------5------5|
E|----------------------------------------------------------------------------|

Chorus:
e|---------------------------------------------------------------------------|
B|---------------------------------------------------------------------------|
G|---------0-----------0-----------0---------0-------------------------------|
D|------5----5-----5-----5-----5-----5----5-----5----------------------------|
A|---3----------3-----------3-----------3------------------------------------|
E|---------------------------------------------------------------------------|

BRIDGE:
e|---------------------------------------------------------------------------|
B|---------------------------------------------------------------------------|
G|-----------0-----------------0---------------0----------------0------------|
D|-------5-------5---------5-------5-------5-------5--------5------5---------|
A|---3---------------5h7---------------3--------------5h7--------------------|
E|---------------------------------------------------------------------------|

LYRICS (Credit to Jheri)

Verse 1:
trees will make a forest
trees will make a boat
these are all the harder
words you have to know
waiting for her family
she threw a fit
now she's got a brick house
there's no children in it

Verse 2:
causing little blood cells
where's your oxygen?
city is the airways
some bird's appendages
she was feeling lonely
should never had
drove her down to Texas
and he bought a bride

Chorus:
little cities labled on no map
tied her up and laid her on the train tracks

(Bridge)

Verse 2 (Repeat):
causing little blood cells
where's your oxygen?
city is the airways
some bird's appendages
she was feeling lonely
she had left behind
drove right down to Texas
he bought a bride

Chorus:
little city is miserable on the maps
tied her up and laid her on the train tracks

Verse 1 (Repeat):
trees will make a forest
trees will make a boat
these are all the harder
words you'll have to know
waiting for her family
she threw a fit
now she's got a brick house
there's no children in it.    

Added On December 16th, 2013

SHARE

Comments

blog comments powered by Disqus

ADVERTISEMENT