Breaking Benjamin Tabs

Dance With The Devil

4 versions

TAB

            Dance With The Devil Tab by Breaking Benjamin


Artist : Breaking Benjamin
Song   : Dance With The Devil
Album  : Phobia
Tuning : (low to high) Bb F Bb Eb G C

Intro  Gtr I
C |-----------------------------------------------------------------------|
G |-----------------------------------------------------------------------|  
Eb|-----------------------------------------------------------------------| 
Bb|-3S5-5-5-5-5-5-5-5-5-5-5-5-5-5-5-------3S5-5-5-5-5-5-5-5-5-5-5-5-5-5-5-| 
F |-----------------------------------------------------------------------|
Bb|-----------------------------------------------------------------------|

Verse  Gtr I
C |------------------------------------------------------------------------|
G |-------------------------------------------------11---------------------|
Eb|-------7------------5------------7------12-12-12----12-12--8-8-8-10-8---|
Bb|-5-5-5---5-5--7-7-7---7-7--8-8-8---8-8--------------------------------8-| 
F |------------------------------------------------------------------------|
Bb|------------------------------------------------------------------------|

C |-------------------------------------|x1
G |-------------------------------------|
Eb|-8-8-8-10-8---8-8-8-10-8---7b8-7b8-7-|
Bb|------------8------------8-----------| 
F |-------------------------------------|
Bb|-------------------------------------|

Breakdown Gtr I, II
C |--------------------------|x3 |----------------------------|x1
G |--------------------------|   |--------------------------8-|
Eb|--------------------------|   |--------------------------7-|
Bb|-5--5--5p3--5p3--8p5--3h6-|   |-5--5--5p3--8-8-8--6-6-6--5-|
F |-5--5--5p3--5p3--8p5--3h6-|   |-5--5--5p3--8-8-8--6-6-6--5-|
Bb|-5--5--5p3--5p3--8p5--3h6-|   |-5--5--5p3--8-8-8--6-6-6--5-|

Verse  Gtr I
C |------------------------------------------------------------------------|
G |-------------------------------------------------11---------------------|
Eb|-------7------------5------------7------12-12-12----12-12--8-8-8-10-8---|
Bb|-5-5-5---5-5--7-7-7---7-7--8-8-8---8-8--------------------------------8-| 
F |------------------------------------------------------------------------|
Bb|------------------------------------------------------------------------|

C |-------------------------------------|x3
G |-------------------------------------|
Eb|-8-8-8-10-8---8-8-8-10-8---7b8-7b8-7-|
Bb|------------8------------8-----------| 
F |-------------------------------------|
Bb|-------------------------------------|

Chorus Gtr I
C |-----------------------------------------------------------|x3
G |-----------------------------------------------------------|
Eb|-----------------------------------------------------------|
Bb|--5--5--5-5-5----3--3--3-3-3----1--1--1-1-1----1--1--1-1-1-| 
F |--5--5--5-5-5----3--3--3-3-3----1--1--1-1-1----1--1--1-1-1-|
Bb|--5--5--5-5-5----3--3--3-3-3----1--1--1-1-1----1--1--1-1-1-|

  Gtr II
C |-----------------------------------------------------------|x3
G |-----------------------------------------------------------|
Eb|--7--7--7-7-7----5--5--5-5-5----8--8--8-8-8----8--8--8-8-8-|
Bb|--5--5--5-5-5----3--3--3-3-3----8--8--8-8-8----8--8--8-8-8-| 
F |--5--5--5-5-5----3--3--3-3-3----6--6--6-6-6----6--6--6-6-6-|
Bb|--5--5--5-5-5----3--3--3-3-3-------------------------------|

Breakdown Gtr I, II
C |------------------------------------------------------|x1
G |----------------------------------------------------8-|
Eb|----------------------------------------------------7-|
Bb|-5--5--5p3--5p3--8p5--3h6--5--5--5p3--8-8-8--6-6-6--5-|
F |-5--5--5p3--5p3--8p5--3h6--5--5--5p3--8-8-8--6-6-6--5-|
Bb|-5--5--5p3--5p3--8p5--3h6--5--5--5p3--8-8-8--6-6-6--5-|

Verse  Gtr I
C |------------------------------------------------------------------------|
G |-------------------------------------------------11---------------------|
Eb|-------7------------5------------7------12-12-12----12-12--8-8-8-10-8---|
Bb|-5-5-5---5-5--7-7-7---7-7--8-8-8---8-8--------------------------------8-| 
F |------------------------------------------------------------------------|
Bb|------------------------------------------------------------------------|

C |-------------------------------------|x3
G |-------------------------------------|
Eb|-8-8-8-10-8---8-8-8-10-8---7b8-7b8-7-|
Bb|------------8------------8-----------| 
F |-------------------------------------|
Bb|-------------------------------------|

Chorus Gtr I
C |-----------------------------------------------------------|x3
G |-----------------------------------------------------------|
Eb|-----------------------------------------------------------|
Bb|--5--5--5-5-5----3--3--3-3-3----1--1--1-1-1----1--1--1-1-1-| 
F |--5--5--5-5-5----3--3--3-3-3----1--1--1-1-1----1--1--1-1-1-|
Bb|--5--5--5-5-5----3--3--3-3-3----1--1--1-1-1----1--1--1-1-1-|

  Gtr II
C |-----------------------------------------------------------|x3
G |-----------------------------------------------------------|
Eb|--7--7--7-7-7----5--5--5-5-5----8--8--8-8-8----8--8--8-8-8-|
Bb|--5--5--5-5-5----3--3--3-3-3----8--8--8-8-8----8--8--8-8-8-| 
F |--5--5--5-5-5----3--3--3-3-3----6--6--6-6-6----6--6--6-6-6-|
Bb|--5--5--5-5-5----3--3--3-3-3-------------------------------|

Bridge Gtr I
C |---------------------------------------------------------------|x1
G |---------------------------------------------------------------|
Eb|-2h3p2p0---------------------2h3p2p0---------------------------|
Bb|----------0--0-0-0---1--1-1-----------0--0-0-0---1-1-1---3-3-3-| 
F |----------0--0-0-0---1--1-1-----------0--0-0-0---1-1-1---3-3-3-|
Bb|----------0--0-0-0---1--1-1-----------0--0-0-0---1-1-1---3-3-3-|

Solo Gtr I
C |----------------------------------------------------------|x1
G |----------------------------------------------------------|
Eb|----------------------------------------------------------|
Bb|-5----3----1----1----3----5----5----8----1----1----3----5-| 
F |-5----3----1----1----3----5----5----8----1----1----3----5-|
Bb|-5----3----1----1----3----5----5----8----1----1----3----5-|

  Gtr II
C |-------------------------------------------------------------|
G |-15-15-15-15-15-15-15-15-15-15-15-15-15-15-15-15-15-15-15-15-|
Eb|--x--x--x--x--x--x--x--x--x--x--x--x--x--x--x--x--x--x--x--x-|
Bb|-12-12-12-12-12-12-12-12-12-12-12-12-12-12-12-12-12-12-12-12-| 
F |-------------------------------------------------------------|
Bb|-------------------------------------------------------------|

C |-20v--18-17-15-17-15-13-15-15-15-15\--18--18-18--17--17-17-----------|
G |--------------------------------------15--15-15--15--15-15--15b16r15-|
Eb|-------------------------------------------------------------0-------|
Bb|---------------------------------------------------------------------| 
F |---------------------------------------------------------------------|
Bb|---------------------------------------------------------------------|

C |-------------------18-18-18-18-18-18-22-22-22-22-22-22-22-22-22-22-22-22-|x1
G |-15-15-15-15-15-15-------------------------------------------------------|
Eb|-------------------------------------------------------------------------|
Bb|-------------------------------------------------------------------------| 
F |-------------------------------------------------------------------------|
Bb|-------------------------------------------------------------------------|

Chorus Gtr I
C |-----------------------------------------------------------|x3
G |-----------------------------------------------------------|
Eb|-----------------------------------------------------------|
Bb|--5--5--5-5-5----3--3--3-3-3----1--1--1-1-1----1--1--1-1-1-| 
F |--5--5--5-5-5----3--3--3-3-3----1--1--1-1-1----1--1--1-1-1-|
Bb|--5--5--5-5-5----3--3--3-3-3----1--1--1-1-1----1--1--1-1-1-|

  Gtr II
C |-----------------------------------------------------------|x3
G |-----------------------------------------------------------|
Eb|--7--7--7-7-7----5--5--5-5-5----8--8--8-8-8----8--8--8-8-8-|
Bb|--5--5--5-5-5----3--3--3-3-3----8--8--8-8-8----8--8--8-8-8-| 
F |--5--5--5-5-5----3--3--3-3-3----6--6--6-6-6----6--6--6-6-6-|
Bb|--5--5--5-5-5----3--3--3-3-3-------------------------------|

Bridge Gtr I
C |-------------------------------------------------------------------|x1
G |-------------------------------------------------------------------|
Eb|-2h3p2p0---------------------2h3p2p0-------------------------------|
Bb|----------0--0-0-0---1--1-1-----------0--0-0-0---1-1-1---3-3-3---5-| 
F |----------0--0-0-0---1--1-1-----------0--0-0-0---1-1-1---3-3-3---5-|
Bb|----------0--0-0-0---1--1-1-----------0--0-0-0---1-1-1---3-3-3---5-|

h  = hammer-on
p  = pick-off
*  = stop/cut short
 = harmonics
>  = pinch harmonic
b  = bend
x  = palm mute
v  = vibrato    

Added On December 4th, 2013

SHARE

Comments

blog comments powered by Disqus

VERSIONS

ADVERTISEMENT