Bright Eyes Tabs

Arienette

1 versions

TAB

            Arienette Tab by Bright Eyes


-------------------------------------------------------------------------------
			     Arienette - Bright Eyes
-------------------------------------------------------------------------------
Tabbed by: Yoshima
Email:derby@fsmail.net

Tuning: Standard


Chords used in the song are...

     (Am7+11)    (Em7)      (E)       (F#m)      (B)      (Am7/E)      (A)
e|-------4---------4------------------(9)---------7----------9----------5---------|
B|-------5---------4---------9---------10---------7----------9----------5---------|
G|-------6---------5---------9---------11---------8----------10---------6---------|
D|-------6---------6---------9---------11---------9----------11---------7---------|
A|-------4---------6---------7---------9----------9----------11---------7---------|
E|-----------------4-------------------9----------7----------9----------5---------|

Not actually sure about the chord names but thats what power tab said they are called.


Intro


    (Am7+11)
e|-----------4-----------|
B|-----5-----5-5----5----|
G|-----6---6---6----6----|
D|-------6--------6------|
A|--4------------------4-|
E|-----------------------| x3


then;

e|-----------4-------4^--|
B|-----5-----5-5-----5^--|
G|-----6---6---6---6-6^--|
D|-------6-------6---6^--|
A|--4--------------------|
E|-----------------------|


Verses;

continue more or less with the above picking pattern for each cord emphasizing the 
bass notes played with the thumb.

    Am7+11
The fragile keep secrets


gathered in pockets

            Em7
and they’ll sell them for nothing


a cheap watch or locket

     E                     Am7+11
that kind of gold washes off


and the sad act like lepers


they stick to the shadows

             Em7
they long to ring bells of warning


to tell of their coming

            E                    Am7+11
so that the pure can shut their doors


and the angry are animals senseless and savage

     Em7
they act without order in logical lapses

      E                        Am7+11
they stain their mouths with blood

   F#m
so take my hand

                    Am7+11
this barren land is alive tonight

        F#m
and the corn has grown

                   Am7+11
stalks that form a wall too high

            F#m
but the wind carries sounds

                      Am7+11
that I can't see from beyond that line

         Am7+11  A       Em7
then the stalks begin to sway

    Am7/E        B    A   Em7
oh, stay with me Ar..ien..ette

                         Am7+11
until the wolves are away

         A   Em7 ........... A   Em7
YEP!!!!


The Second Verse has the same structure so the chords are the same.

well, the wicked are vultures
and they bake in the canyons
they circle in sunlight
and wait for their victims
to collapse and call to them
the desperate are water
they’ll run down forever as they soak into silence,
mend up together in a dark and distant
dark and distant place
so don't leave me here
with only mirrors watching me
this house it holds nothing but the memories
and the moon it leaves silver but never sleep
and then the silver turns to gray
oh, stay with me Arienette
until the wolves are away
are away.    

Added On December 4th, 2013

SHARE

Comments

blog comments powered by Disqus

ADVERTISEMENT