Bruce Dickinson Tabs

Machine Men

1 versions

TAB

            Machine Men Tab by Bruce Dickinson


intro (there's also solo gtr on the bground i didn't figure out)
e-----------------------------------------------|
b-----------------------------------------------|
g-----------------------------------------------|
d-0---------0--------0--------5--------5--------|
a-0---------0--------0--------5--------5--------|
d-0---------0--------0--------5--------5--------|
(let ring)

main riff x8
e----------------------------------------------------------------------------|
b----------------------------------------------------------------------------|
g----------------------------------------------------------------------------|
d-0--------0--------0--------1-3-3--0--------0--------0----------------------|
a-0---0-0--0---0-0--0---0-0--1-3-3--0---0-0--0---0-0--0---0-0-5-7-7-7-3-5-5--|
d-0---0-0--0---0-0--0---0-0--1-3-3--0---0-0--0---0-0--0---0-0-5-7-7-7-3-5-5--|
      * *      * *      * *             * *      * *      * *
solo gtr
e----------------------- ------------------------|
b----------------------- -14b--------------------|
g-9b(full bend)-7--9--7- -13b(full bend)-11/13---|
d----------------------- ---------------------12-|
a----------------------- ------------------------|
d----------------------- ------------------------|

bridge
e-----------------|
b-----------------|
g-----------------|
d-5-7-7-7-3-5-5---|    

Added On December 4th, 2013

SHARE

Comments

blog comments powered by Disqus

ADVERTISEMENT