Buckethead Tabs

Ghost Host

3 versions

TAB

            Artist : Buckethead
Song   : Ghost Host
Album  : Decoding the Tomb of Bansheebot
Tuning : Eb Ab Db Gb Bb Eb


|--8----8-------8----------8------8-----------8--|
|--8-----------------------10--------------------|
|-10--------10-------------10----------10--------|
|-10-----------------------10--------------------|
|--8------------------------8--------------------|
|------------------------------------------------|

|--5----5------5--------5-----5-------5-----|
|--6--------6-----------5----------6--------|
|--7--------------------7-------------------|
|--7--------------------7-------------------|
|--5--------------------5-------------------|
|-------------------------------------------|

|------------------------------------|
|----------------------15--15--------|
|----------------------14--14--------|
|----10-/12----12------15--15--------|
|----10-/12----12------13--13--------|
|-----8-/10----10--------------------|

|------------------------------------|
|----------------------------15------|
|----------------------------14------|
|----10-/12----12------------15------|
|----10-/12----12------------13------|
|-----8-/10----10--------------------|

|------------------------------------------15--15---12-----|
|--------------------------15-----15-------13--13---13-----|
|--------------------------14-----14-------12--12---12-----|
|----10-/12----12----------15-----15-------14--14---14-----|
|----10-/12----12----------13-----13-------12--12---12-----|
|-----8-/10----10------------------------------------------|

|----------------------------------------------------------------|
|----------------------------------------------------------------|
|----------------------------------------------------------------|
|--------12------------------------------------------------------|
|------------------------8--10--12---8---------------------------|
|--------------10-10----------------------12--8---8--12--10------|

|-----------------------------------------------------------|
|-----------------------------------------------------------|
|-----------------------------------------------------------|
|--------7--------------------------------------------------|
|----------------------3--5--7---3--------------------------|
|--------------5--5-------------------7--3---3--7--5--------|

|----10h12p10----------------------------------------------10--8----------|
|----10--------------11s13--11----10-------------------8----------8-------|
|--------------------12s14--12----10h12p10------9h10----------------10----|
|---------------------------------------------12--------------------------|
|-------------------------------------------------------------------------|
|-------------------------------------------------------------------------|

|----10h12p10--------------------------------------------------------|
|----10--------------11s13--11----10---------------------8-----------|
|--------------------12s14--12----10h12p10------9h10-------10--------|
|---------------------------------------------12---------------------|
|--------------------------------------------------------------------|
|--------------------------------------------------------------------|

Sorry its not spaced enough but thatÂ’s the only way I can get it to fit
|--------------------------------------------------------------------------|
|--------------------------------------------------------------------------|
|--------9--9--9h11p9--8h9--4--4----------4--4h6--6--4---------------------|
|-4h6------------------------------4--4h6--------------6----4--4h6--6------|
|---------------------------------------------------------------------7----|
|--------------------------------------------------------------------------|

|---------------------------------------------------------11^-------------|
|--------------7--7--7h10--7h10p7--4h5p4--2/9-----------------------------|
|-------------------------------------------------------------------------|
|-4--4h6------------------------------------------------------------------|
|-------------------------------------------------------------------------|
|-------------------------------------------------------------------------| 

There that's most of it    

Added On December 16th, 2013

SHARE

Comments

blog comments powered by Disqus

VERSIONS

ADVERTISEMENT