Buckethead Tabs

Jordan

5 versions

TAB

            Jordan Tab by Buckethead


-------------------------------------------------------------------------------
			     Jordan - Buckethead
-------------------------------------------------------------------------------
Tabbed by: Thissuffering06
Email: xtabcrawler90x@yahoo.com

This is the Guitar Hero II Version...  It's my first attempt at any tabs...  

As of right now I'm working on the solo  and hopefully will 

have the tab up soon....    Hope you like...



Tunings:      Guitar One : Eb Ab Dd Gb Bb eb  (Lead)
	     Guitar Two : Eb Ab Dd Gb Bb eb  (Second)

        riff 1   
        eb|--------------------------------------------------|
        Bb|--------------------------------------------------|
Gtr 1   Gb|------------------------------------------12-14-12| (Using Kill
        Db|--------------------------------------------------|  Switch and
        Ab|--------------------------------------------------|     Wah)
        Eb|12-(0)-(0)-12-(0)-12-(0)-12-(0)-(0)-10-12---------|
                                                               x11
        eb|--------------------------------------------------|
        Bb|--------------------------------------------------|
Gtr 2   Gb|------------------------------------------12-14-12|  (Using Kill 
        Db|--------------------------------------------------|     Switch)
        Ab|--------------------------------------------------|
        Eb|12-(0)-(0)-12-(0)-12-(0)-12-(0)-(0)-10-12---------|

        riff 2 
        eb|---------------------------------------------------------|
	Bb|---------------------------------------------------------| (Using
Gtr 1	Gb|---------------------------------------------------------|  Kill 
	Db|14------------14------14-(14)-13-(13)-13-13-12-12-12-(12)| Switch &
	Ab|---------------------------------------------------------|  Wah)
	Eb|---(12)-(12)-----(14)------------------------------------|
                                                                       x1
	eb|---------------------------------------------------------|
	Bb|---------------------------------------------------------| (Using 
Gtr 2	Gb|---------------------------------------------------------|   Kill 
	Db|14------------14------14-(14)-13-(13)-13-13-12-12-12-(12)|  Switch)
	Ab|---------------------------------------------------------|
	Eb|---(12)-(12)-----(14)------------------------------------|

	Chorus riff  
	eb|----------------------------------------------------|
	Bb|----------------------------------------------------| (Using Kill
Gtr 1	Gb|----------------------------------------------------|   Switch & 
	Db|4-4-------------------4-4-4-------------------------|     Wah)
	Ab|----------------------------------------------------|
	Eb|----2-2-3-3-3-0-0-0-0-------2-2-2-3-3-3-3-3-3-0--0-0|
                                                                  X4
	eb|----------------------------------------------------|
	Bb|----------------------------------------------------| (Using Kill
Gtr 2	Gb|----------------------------------------------------|    Switch)
	Db|4-4-------------------4-4-4-------------------------|
	Ab|----------------------------------------------------|
	Eb|----2-2-3-3-3-0-0-0-0-------2-2-2-3-3-3-3-3-3-0--0-0|

(Solo....  then Bridge....)

Then just use the Chorus riff as the outro



| /  slide up
| \  slide down
| h  hammer-on
| p  pull-off
| ~  vibrato
| +  harmonic
| x  Mute note
===============================================================================    

Added On December 4th, 2013

SHARE

Comments

blog comments powered by Disqus

VERSIONS

ADVERTISEMENT