Buckethead Tabs

Nightmare Before Christmas

1 versions

TAB

            E--7-7-7-7---7-8---5--5-------5-5-5-5---5-7-8-7--|
B--8-8-8-8---8-8---7--7-------7-7-7-7---7-8-8-8--|
G--9-9-9-9---9-9---7--7-------7-7-7-7---7-9-9-9--|
D------------------------------------------------|
A------------------------------------------------|
E--0-0-0-0---0-0---0--0-------0-0-0-0---0-0-0-0--|

E--7-7-7---8-10-8-7-5---5-5-5---5-6-5--3--3--|
B--8-8-8----------------7-7-7----------------|
G--9-9-9----------------7-7-7----------------|
D--------------------------------------------|
A--------------------------------------------|
E--0-0-0----------------0-0-0----------------|

E----------------------------------------------------------------|
B----------------------------------------------------------------|
G----------------------------------------------------------------|
D----------------------------------------------------------------|
A--5--5---5-4-2---5--5---5-4-2---5-5---5--0-------2--3-----------|
E--2--2---2-2-2---2--2---2-2-2---2-2---2----3-2-0----------------|

E----------------------------------------------------------------|
B----------------------------------------------------------------|
G----------------------------------------------------------------|
D----------------------------------------------------------------|
A--7--7---7-6-4---7--7---7-6-4---7-7---7--0-------3---6----------|
E--4--4---4-4-4---4--4---4-4-4---4-4---4----3-2-0----------------|    

Added On December 16th, 2013

SHARE

Comments

blog comments powered by Disqus

ADVERTISEMENT