Buckethead Tabs

We Are One

2 versions

TAB

            Buckethead ft. Serg Tankian
We Are One
Enter The Chicken

Tuning: Drop C

Intro- Guitar 1
|----------------------------------------------------|
|----------------------------------------------------|
|----------------------------------------------------|
|-0-0-1-0-0-0----0-0-0-1-0-0-0-0-0-1-0-0-0-----------|
|-0-0-1-0-0-0----0-0-0-1-0-0-0-0-0-1-0-0-0-----------|
|-0-0-1-0-0-0----0-0-0-1-0-0-0-0-0-1-0-0-0-----------|
  . . . . . .    . . . . . . . . . . . . .PM

|-----------------------------------------------------|
|-----------------------------------------------------|
|-----------------------------------------------------|
|--7---3---5--------5---3---0-------------------------|
|--7---3---5--------5---3---0-------------------------|
|--7---3---5--------5---3---0-------------------------|


|-------------------------------------------------------|
|-------------------------------------------------------|
|-------------------------------------------------------|
|--0-0-7-0-77-88-1010-88----0-0-7-0-1212-88-1010-88-----|
|-------------------------------------------------------|
|-------------------------------------------------------|
   . . . . .. .. .... .. PM . . . . .... .. .... ..


|----------------------------------------------------|
|----------------------------------------------------|
|----------------------------------------------------|
|-0-0-1-0-0-0----0-0-0-1-0-0-0-0-0-1-0-0-0-----------|
|-0-0-1-0-0-0----0-0-0-1-0-0-0-0-0-1-0-0-0-----------|
|-0-0-1-0-0-0----0-0-0-1-0-0-0-0-0-1-0-0-0-----------|
  . . . . . .    . . . . . . . . . . . . .PM

|-----------------------------------------------------|
|-----------------------------------------------------|
|-----------------------------------------------------|
|--7---3---5--------5---3---0-------------------------|
|--7---3---5--------5---3---0-------------------------|
|--7---3---5--------5---3---0-------------------------|

Guitar 1

|-----------------------------------------------------|
|-----------------------------------------------------|
|-----------------------------------------------------|
|--7---3---5--------5---3---0-------------------------|
|--7---3---5--------5---3---0-------------------------|
|--7---3---5--------5---3---0-------------------------|

While guitar 1 plays that,
Guitar 2 plays this.

|-----------------------------------------------------|
|----------10-11-13-11-10-11h-10~---------------------|3x with singing
|-----------------------------------------------------|5x by yourself
|-----------------------------------------------------|
|-----------------------------------------------------|
|-----------------------------------------------------|


I don't the parts where serg uses the ghost machine but heres the ghost machine. So 
the End.

Guitar 1
|-----------------------------------------------------|
|-----------------------------------------------------|
|-----------------------------------------------------|
|-----------------------------------------------------|
|-------------------------------------------44-33-----|
|-88-33-88-33-66-33-66-33-44-33-44-33-44-33-----------|Pick scrape

  .. .. .. .. .. .. .. .. .. .. .. .. .. .. .. .. PM

Then

|----------------------------------------------------|
|----------------------------------------------------|
|----------------------------------------------------|
|-0-0-1-0-0-0----0-0-0-1-0-0-0-0-0-1-0-0-0-----------|
|-0-0-1-0-0-0----0-0-0-1-0-0-0-0-0-1-0-0-0-----------|
|-0-0-1-0-0-0----0-0-0-1-0-0-0-0-0-1-0-0-0-----------|
  . . . . . .    . . . . . . . . . . . . .PM

|----------------------------------------------------|
|----------------------------------------------------|
|----------------------------------------------------|
|----------------------------------------------------| x2
|----------------------------------------------------|
|-0-0-7-0-77-88-1010-88----0-0-7-0-1212-88-1010-88---|

At the End

|-------------------------------------------------------|
|-------------------------------------------------------|
|-------------------------------------------------------|
|--0-0-7-0-77-88-1010-88----0-0-7-0-1212-88-1010-88-----| x2
|-------------------------------------------------------|
|-------------------------------------------------------|
   . . . . .. .. .... .. PM . . . . .... .. .... ..

|-------------------------------------------------------|
|-------------------------------------------------------|
|-------------------------------------------------------|
|--------------0-0-7-7--0-------------------------------|
|-----------------------0-------------------------------|
|-----------------------0-------------------------------|

So thats it, I hope that gives you a better idea at one of the best songs by buckethead. 
me at marte_martman11@hotmail.com    

Added On December 16th, 2013

SHARE

Comments

blog comments powered by Disqus

VERSIONS

ADVERTISEMENT