Buckethead Tabs

Welcome To Bucketheadland

3 versions

TAB

            Welcome To Buckethead Land Tab by Buckethead


#----------------------------------PLEASE NOTE---------------------------------#
#This file is the author's own work and represents their interpretation of the-#
#song. You may only use this file for private study, scholarship, or research.-#
#------------------------------------------------------------------------------#

Buckethead - Welcome to Buckethead Land


e|----------------------------------------
B|----------------------------------------
G|----------------------------------------
D|-0-0-5-5-4-4-0-0------------------------
A|--0-0-0-0-0-0-0-0-0-4-5-----------------
E|-------------------------------3--------

       AH AH  AH     AHAH   AH     AH
e|-----------------------------------
B|-----------------------------------
G|-----------------------------------
D|---------------------------7-----5-
A|-----4---5---4-----4-5-------------
E|-2-2---2---2---3-3-----3-3---3-3---

       AH  AH  AH
e|--------------------------------------------
B|--------------------------------------------
G|-------------------7-6-4--------------------
D|-------------------------7-5-4--------------
A|-----4---5---4-----------------7-5-4--------
E|-2-2---2---2---3-3-------------------7-5-3--

e|--------------------------------------------
B|--------------------------------------------
G|--------------------------------------------
D|-4-X-X-2-4-X-X-5-X-5-2-4--------------------
A|-4-X-X-2-4-X-X-5-X-5-2-4--------------------
E|-2-X-X-0-2-X-X-3-X-3-0-2--------------------

He does sumthing kinda trill I won't repeat The notes DA!

e|--------------------------------------------
B|-12--14--15--20--19--17---------------------
G|--------------------------------------------
D|--------------------------------------------
A|--------------------------------------------
E|--------------------------------------------

================================================================================----------------------------------------------------------------------------
	          Welcome to Bucketheadland - Buckethead
----------------------------------------------------------------------------
Tabbed by: Ross Louden
Email: cant_i_live@hotmail.com

Tuning: eBGDAE

e|-----------------------------------------------------------------------| 
B|-----------------------------------------------------------------------|
G|-----------------------------------------------------------------------|x4
D|----------------------------------------------------0------------------|
A|-------------0-10h-0-10h-0-9h-0-9h----------------4----5---------------|
E|-7-10h-7-10h-----------------------7-10h-7-10h--5------3---------------|	

e|-----------------------------------------------------------------------|
B|-----------------------------------------------------------------------|
G|-----------------------------------------------------------------------|
D|-------------------------7-----5---------------------------------------|
A|-----4-5-4+--5-5--4-5---------------------4-5-4--5-5-------------------|
E|-2-2---------3-3------3-3---3-3-----2-2----------3-3-------------------|
 
 |--------------------------|
 |--------------------------|
 |--7-6-4-------------------|
 |--------7-5-4-------------|
 |--------------7-5-4-------|
 |--------------------7-5-3-|

e|-----------------------------------------------------------------------|
B|-----------------------------------------------------------------------|
G|-----------------------------------------------------------------------|
D|-------------------------7-----5---------------------------------------|
A|-----4-5-4+--5-5--4-5---------------------4-5-4--5-5-------------------|
E|-2-2---------3-3------3-3---3-3-----2-2----------3-3-------------------|

 |---------------------|
 |---------------------|
 |---------------------|x4  
 |--------2--------2---|
 |------4-2-4--5-5-2-4-|
 |-7/3--2-0-2--3-3-0-2-|

e|-----------------------------------------------------------------------| 
B|-----------------------------------------------------------------------|
G|-----------------------------------------------------------------------|x4
D|----------------------------------------------------0------------------|
A|-------------0-10h-0-10h-0-9h-0-9h----------------4----5---------------|
E|-7-10h-7-10h-----------------------7-10h-7-10h--5------3---------------|

e|-----------------------------------------------------------------------|
B|-----------------------------------------------------------------------|
G|-----------------------------------------------------------------------|
D|-------------------------7-----5---------------------------------------|
A|-----4-5-4+--5-5--4-5---------------------4-5-4--5-5-------------------|
E|-2-2---------3-3------3-3---3-3-----2-2----------3-3-------------------|
 
 |--------------------------|
 |--------------------------|
 |--7-6-4-------------------|
 |--------7-5-4-------------|
 |--------------7-5-4-------|
 |--------------------7-5-3-|

e|-----------------------------------------------------------------------|
B|-----------------------------------------------------------------------|
G|-----------------------------------------------------------------------|
D|-------------------------7-----5---------------------------------------|
A|-----4-5-4+--5-5--4-5---------------------4-5-4--5-5-------------------|
E|-2-2---------3-3------3-3---3-3-----2-2----------3-3-------------------|

 |---------------------|
 |---------------------|
 |---------------------|x4  
 |--------2--------2---|
 |------4-2-4--5-5-2-4-|
 |-7/3--2-0-2--3-3-0-2-|

	He plays this version live
e|--------------------------------------------------------15~-14~-12-----|
B|-11\12-12-12-12-12-14-14-14-14-14-14-15-15-15-15-15-15-----------------|
G|-----------------------------------------------------------------------|x2
D|-----------------------------------------------------------------------|
A|-----------------------------------------------------------------------|
E|-----------------------------------------------------------------------|

	And this version on the album
e|-----------------------------------------------------15~-14~-12--------|
B|-12-12-12-12-12-14-14-14-14-14-14-15-15-15-15-15-15--------------------|
G|-----------------------------------------------------------------------|x2
D|-----------------------------------------------------------------------|
A|-----------------------------------------------------------------------|
E|-----------------------------------------------------------------------|

 |---------------------|
 |---------------------|
 |---------------------|x4  
 |--------2--------2---|
 |------4-2-4--5-5-2-4-|
 |-7/3--2-0-2--3-3-0-2-|

e|-----------------------------------------------------------------------| 
B|-----------------------------------------------------------------------|
G|-----------------------------------------------------------------------|x4
D|----------------------------------------------------0------------------|
A|-------------0-10h-0-10h-0-9h-0-9h----------------4----5---------------|
E|-7-10h-7-10h-----------------------7-10h-7-10h--5------3---------------|	

e|--------------------------------------------------------15~-14~-12-----|
B|-11\12-12-12-12-12-14-14-14-14-14-14-15-15-15-15-15-15-----------------|
G|-----------------------------------------------------------------------|x2
D|-----------------------------------------------------------------------|
A|-----------------------------------------------------------------------|
E|-----------------------------------------------------------------------|
				OR
e|-----------------------------------------------------15~-14~-12--------|
B|-12-12-12-12-12-14-14-14-14-14-14-15-15-15-15-15-15--------------------|
G|-----------------------------------------------------------------------|x2
D|-----------------------------------------------------------------------|
A|-----------------------------------------------------------------------|
E|-----------------------------------------------------------------------|


 I havent got round to tabbing the solo yet but I think its mainly played
 around the frets 16-21 on the e and B  strings so be creative. Good luck
 and happy guitar playing.

 Any questions about this tab feel free to e-mail me. =]



| /  slide up
| \  slide down
| h  hammer-on
| p  pull-off
| ~  vibrato
| +  harmonic
| x  Mute note
============================================================================    

Added On December 16th, 2013

SHARE

Comments

blog comments powered by Disqus

VERSIONS

ADVERTISEMENT