Buddy Guy Tabs

Hard Time Killing Floor

1 versions

TAB

            -------------------------------------------------------------------------------
			     Hard Time Killing Floor - Buddy Guy
-------------------------------------------------------------------------------
Tabbed by: Matt Haggard
Email: mhaggard@jsu.edu
Tuning: Down 1/2 Step Eb Ab Db Gb Bb eb

This sounds really good if you play with your fingers. Pick is good too though. 
You'll have to listen to the song to get the timing right. As far as I can tell, 
this is correct. If you have any questions or suggestions just email me and I 
will get back to you A.S.A.P. Enjoy!! 


On the Chord with the asterisk below it, sometimes those strings get muted when 
he plays them, so don't worry if you can't play the whole chord after the walk up to it. 


Intro

e|--3--3-------------3--3----------------------------------------------------|
B|--------5~---------------5--3~----3--3-------------------------------------|
G|---------------------------------------4-2/4\2p0----------0--0--2p0--------|
D|-------------2-----------------------------------2---2--2-----------2------|
A|---------------------------------------------------------------------------|
E|----------------0-----------------------------------------------------0----|

e|-----------------------------------------------|
B|-----------------------------------------------|
G|---0--2/4~--2/4\2p0-------2/4\2p0--------------|
D|-2-------------------2------------2------------|
A|-----------------------2~----------------------|
E|------------------------------------0-Let Ring-|
                                     
e|-----0-----0-----0-----------------2-----------|
B|-----------------------------------0-----------|
G|-2/4---4-3---3-2---2-1-------------2-----------|
D|-----------------------------------1-----------|
A|--------------------------0--1--2--2-----------|
E|------------------------3----------------------|
                                     *

Verse

e|---------------------------------------------------------------------------|
B|---------------------------------------------------------------------------|
G|---------------------------------------------------------------------------|
D|---------------------------------2-2-4-4-2-2-4-4---------------------------|
A|-2-2-4-4-2-2-4-4-2-2-4-4-2-2-4-4-0-0-0-0-0-0-0-0-2-2-4-4-2-2-4-4-----------|
E|-0-0-0-0-0-0-0-0-0-0-0-0-0-0-0-0-----------------0-0-0-0-0-0-0-0-----------|


Chorus

e|---------------------------------------------------------------------------|
B|---------------------------------------------------------------------------|
G|-------------2/4\2p0-------------------------------------------------------|
D|---------------------2-----------------------------------------------------|
A|-2-2-4-4-2-2---------------------------------------------------------------|
E|-0-0-0-0-0-0---------------------------------------------------------------|


Basically, the song just repeats itself a bunch after this, so that's it. There 
are no riffs or fills or anything else that I haven't already tabbed out, so I am 
gonna let you listen to the song to put the rest together. Have fun with this 
one, I did.


| /  slide up
| \  slide down
| h  hammer-on
| p  pull-off
| ~  vibrato
| +  harmonic
| x  Mute note
===============================================================================    

Added On December 16th, 2013

SHARE

Comments

blog comments powered by Disqus

ADVERTISEMENT