Bullet For My Valentine Tabs

Hit The Floor

4 versions

TAB

            Hit The Floor Tab by Bullet For My Valentine


pm palm mute
p pull off
h hammer on
~ vibrato

D|-----------------------|--------------------|
A|-----------------------|--------------------|
F|-----------------------|--------------------|
C|-----4------4------4---|-------4--------4---|
G|-----------------------|--------------------|
C|-2-2----2-2----2-2-----|-0--2-----0--2------|
pm . .    . .    . .       .  .     .  .

D|-----------------------|--------------------|
A|-----------------------|--------------------|
F|-----------------------|--------------------|
C|-----5------5------5---|-------5-----5--7---|
G|-----------------------|--------------------|
C|-2-2----2-2----2-2-----|-0--2-----0---------|
pm . .    . .    . .       .  .     .

D|-----------------------|--------------------|
A|-----------------------|--------------------|
F|-----------------------|--------------------|
C|-----4------4------4---|-------4--------4---|
G|-----------------------|--------------------|
C|-2-2----2-2----2-2-----|-0--2-----0--2------|
pm . .    . .    . .       .  .     .  .

D|-----------------------|--------------------|
A|-----------------------|--------------------|
F|-----------------------|--------------------|
C|-----5------5------5---|-2--5--2--5--2------|
G|-----------------------|-2--5--2--5--2------|
C|-2-2----2-2----2-2-----|-2--5--2--5--2------|
pm . .    . .    . .

D|-----------------------|--------------------| 
A|-----------------------|--------------------|
F|-----------------------|--------------------| 
C|-0-2----0-2----0-2-----|-0--0--0--0--0--0---|
G|-0-2----0-2----0-2-----|-0--0--0--0--0--0---|
C|-0-2----0-2----0-2-----|-0--0--0--0--0--0---|

D|-----------------------|--------------------|
A|-----------------------|--------------------|
F|-----------------------|--------------------|
C|-0-2----0-2----0-2-----|-0--0--0--0--0--0---|
G|-0-2----0-2----0-2-----|-0--0--0--0--0--0---|
C|-0-2----0-2----0-2-----|-0--0--0--0--0--0---| 

D|-----------------------|--------------------|
A|-----------------------|--------------------|
F|-----------------------|--------------------|
C|-0-2----0-2----0-2-----|-2--5--2--5--2------|
G|-0-2----0-2----0-2-----|-2--5--2--5--2------|
C|-0-2----0-2----0-2-----|-2--5--2--5--2------|

D|-12------19------17-------|-15~------------19p-17-19p-17--|
A|--------------------------|-------------------------------|
F|--------------------------|-------------------------------|
C|--------------------------|-------------------------------|
G|--------------------------|-------------------------------|
C|--------------------------|-------------------------------|

D|-14--17--14--15--14--12h-14----15p-14--|
A|---------------------------------------|
F|---------------------------------------|
C|---------------------------------------|
G|---------------------------------------|
C|---------------------------------------|

D|-12------19------17-------|-20~------------19p-17-19p-17--|
A|--------------------------|-------------------------------|
F|--------------------------|-------------------------------|
C|--------------------------|-------------------------------|
G|--------------------------|-------------------------------|
C|--------------------------|-------------------------------|

D|-14--17--14--15--14--12h-14----15p-14--|
A|---------------------------------------|
F|---------------------------------------|
C|---------------------------------------|
G|---------------------------------------|
C|---------------------------------------|

that´s it!!!have fun!!!    

Added On December 4th, 2013

SHARE

Comments

blog comments powered by Disqus

VERSIONS

ADVERTISEMENT