C418 Tabs

Piano 2

1 versions

TAB

            This tablature contains the tenor or "background" part of this tune, not the 
melody. Very simple, but very pretty.

The tab is split into measures. The beats are counted out below the tab (I'm kind 
of a perfectionist...) and the chords are above. The chords aren't perfect because 
I don't know the names of the ones I used, but they work. You'll figure them out 
once you try the tab anyway.

Enjoy! I'll try to get the melody up sometime.




                Asus                      Dsus
e|-----------------|-------0---------|
B|-------0-2-0-----|-----2---2-------|
G|-----2-------2---|---2-------2-----|  x4
D|---2-----------2-|-0---------------|
A|-0---------------|-----------------|
E|-----------------|-----------------|
   1 + 2 + 3 + 4 +   1 + 2 + 3 + 4 +


                Gsus                      Gsus
e|-----------------|-----------------|
B|-----------------|-----------------|
G|---------2-------|---------2-------|  x2
D|-----0-4---4-0---|-----0-4---------|
A|---2-----------2-|---2-------------|
E|-3---------------|-3---------------|
   1 + 2 + 3 + 4 +   1 + 2 + 3 + 4 +


                Asus                      Asus
e|-----------------|-----------0-----|
B|-------0-2-0-----|-------0-2-------|
G|-----2-------2---|-----2-----------| [grand pause]
D|---2-----------2-|---2-------------|
A|-0---------------|-0---------------|
E|-----------------|-----------------|
   1 + 2 + 3 + 4 +   1 + 2 + 3 + 4 +


           Bm/Bsus               Bm/Bsus                        Gsus
e|-2---------------|-----------------|-----------------|
B|---------2-------|---------2-------|-----------------|
G|-------2---------|-------2---------|--------0-2------|
D|---0-4-----------|---0-4-----------|------0----------|
A|-2---------------|-2---------------|---2-------------|
E|-----------------|-----------------|-3---------------|
   1 + 2 + 3 + 4 +   1 + 2 + 3 + 4 +   1 + 2 + 3 + 4 +


                Asus                       E                              E
e|-----------------|-----------------|-----------------|
B|-----------------|-----------------|-----------------|
G|-----------------|---------1-------|---------1-------|
D|-----------------|-------2--2------|-------2---2-----|
A|-0---------------|-----2------2----|-----2-------0---|
E|-----------------|-0-4----------4--|-0-4-------------|
   1 + 2 + 3 + 4 +   1 + 2 + 3 + 4 +   1 + 2 + 3 + 4 +


                Gsus                      Asus
e|-----------------|-----------------|
B|-----------------|-------0-2-------|
G|---------2-------|-----2-----2-----|
D|-----0-4---4-0---|---2---------2---|
A|---2-----------2-|-0-------------0-|
E|-3---------------|-----------------|
   1 + 2 + 3 + 4 +   1 + 2 + 3 + 4 +


                E
e|-----------------|
B|-----------------|
G|---------1-------|    x4
D|-------2---------|    [decrescendo]
A|-----2-----------|
E|-0-4-------------|
   1 + 2 + 3 + 4 +    

Added On December 16th, 2013

SHARE

Comments

blog comments powered by Disqus

ADVERTISEMENT