Cancer Tabs

Into The Acid

1 versions

TAB

            Speacial Legend key:

                                Slide-/
                                H-Hammer On
                                P Pull Off
                               Palm Mute-...

                                Slight Palm Mute ,,,


                               Tuning: D G C F A D


       Riff 1 Intro riff 0:00-0:20

D-------------------------------------------------|
A-------------------------------------------------|
F-------------------------------------------------|
C-----------3---------7---------------3-----------|
G-2------4/5-1---------5-7--2------4/5-1----------|
D-0--0-0-2/3---0-0-0-0---5--0--0-0-2/3---11111111-|


,,, ,,, ,,, ,,, ,,, ,,, ,,, ,,, ,,,


0:20 riff 2


D------------------------------|
A------------------------------|
F------------------------------|
C------------------------------|
G------2-----------------------|
D---0--------------------------|

,,, ,,, ,,, ,,, ,,, ,,, ,,, ,,, ,,, ,,,

0:40 Riff 1 (Chrous Riff)

0:50 Riff 2


1:10 riff 3 Under Solo


D-----------------------------|
A-----------------------------|
F-----------------------------|
C-----------------------------|
G-------4---------------------|
D--2--------------------------|
,,, ,,, ,,, ,,, ,,, ,,,

Riff 4-
1:21-1:33


D------------------------|
A------------------------|
F------------------------|
C------------------------|
G---------2-----3--------|
D----0-------1-----------|

,,, ,,, ,,, ,,, ,,, ,,, ,,,

1:33 play under the solo

D------------------------|
A------------------------|
F------------------------|
C------------------------|
G-------2----------------|
D---0--------------------|

,,, ,,, ,,, ,,, ,,,

2:07 Riff 1    

Added On December 16th, 2013

SHARE

Comments

blog comments powered by Disqus

ADVERTISEMENT