Cannibal Corpse Tabs

Carrion Sculpted Entity

1 versions

TAB

            band;cannibal corpse
song;carrion sculpted entity
album;evisceration plague
tuning is half a step down from b
tabber; ben chaffins
putting in standard so its easier to read
and this was the best that i could come up with

main intro on the first and third time do the 3ph and second and forth time the 5 is 
also pinch harmonic
e---------------------------------------------------------------------------|
b---------------------------------------------------------------------------|
g---------------------------------------------------------------------------|
d-----------------------------------3ph-----------------------------------5-|
a-444-3---------555-4---------444-3-----444-3---------555-4---------444-3---|
e-222-1-0-0-0-0-333-2-0-0-0-0-222-1-----222-1-0-0-0-0-333-2-0-0-0-0-222-1---|
  ... . . . . . ... . . . . . ... .     ... . . . . . ... . . . . . ... .

this here is only played once
e-----------------------------|
b-----------------------------|
g-----------------------------|
d-----------------------------|
a-444-3---------555-4---------|
e-222-1-0-0-0-0-333-2-0-0-0-0-|
  ... . . . . . ... . . . . .



riff 1 play this 2 times
e-------------------------------------------------------------|
b-------------------------------------------------------------|
g-------------------------------------------------------------|
d-66667777----------------66667777----------------------------|
a----------88885555444444----------88885555---7/6---7/6---7/6-|
e-------------------------------------------0-5/4-0-5/4-0-5/4-|
                                            .     .     .

riff 2 only played once
e--------------------------------------------------------------------------|
b--------------------------------------------------------------------------|
g--------------------------------------------------------------------------|
d--------------------------------------------------------------------------|
a-444444555555444444777777999999101010101010777777666666777777111111111111-
e--------------------------------------------------------------------------

riff 2 continued
e-----------------------------------------------------------------------|
b-----------------------------------------------------------------------|
g-----------------------------------------------------------------------|
d--------------------------888888--------------999999888888-------------|
a-777777---7/6---7/6---7/6--------555555666666--------------------------|
e--------0-5/4-0-5/4-0-5/4----------------------------------4"-5"-7"-5"-|
         .     .     .                                      .  .  .  .

still riff 2 continued
e---------------------|
b---------------------|
g---------------------|
d---------------------|
a-6---7/6---7/6---7/6-|
e-4-0-5/4-0-5/4-0-5/4-|
    .     .     .

riff 3 played 3 times
e------------|
b------------|
g------------|
d----------8-|
a-55555555-6-|
e------------|

thats it the basics of the song just listen to it for timming and all that other stuff    

Added On December 16th, 2013

SHARE

Comments

blog comments powered by Disqus

ADVERTISEMENT