Capital Cities Tabs

One Minute More

1 versions

TAB

            -------------------------------------------------------------------------------
                             Capital Cities - One Minute More
-------------------------------------------------------------------------------
Tabbed by:Osbaldo Sánchez G.
E-mail: blaisepascal_@hotmail.com

Tuning: Standard 40/40 | Afinación normal 40/40

Intro

e |--------------------------------------------------------------------------|
B |--------------------------------------------------------------------------|
G |-------------6-6-6-----6-6-6-----6-6-6-------6-6-6------------------------|
D |-------------------7-7-------6-6-------4-4-4-------2-2--------------------|
A |--------------------------------------------------------------------------|
E |--------------------------------------------------------------------------|






A                  D
 Don't wait for an invitation
F#m          E      
 No need for reservation 
A                D
 This life is an exploration 
         F#m              E  
 And you gotta see what I see in you 

A                D
I can't wait one minute more 
F#m
The sun does shine
E 
The sun does shine
A                 D
We can't wait one minute more
F#m 
The sun does shine
E 
The sun does shine 

(The same like 'intro' | Lo mismo como en el 'intro')

e |--------------------------------------------------------------------------|
B |--------------------------------------------------------------------------|
G |-------------6-6-6-----6-6-6-----6-6-6-------6-6-6------------------------|   X2
D |-------------------7-7-------6-6-------4-4-4-------2-2--------------------|
A |--------------------------------------------------------------------------|
E |--------------------------------------------------------------------------|

A                  D
 Just think of the destination
F#m           E 
 I'll be your transportation
A                     D           
 We'll find there's a kind of place 
         F#m                  E 
 That can only be seen with a naked mind 

A                D
I can't wait one minute more 
F#m
The sun does shine
E 
The sun does shine
A                 D
We can't wait one minute more
F#m 
The sun does shine
E 
The sun does shine 

(The same like 'intro' | Lo mismo como en la 'intro')

e |--------------------------------------------------------------------------|
B |--------------------------------------------------------------------------|
G |-------------6-6-6-----6-6-6-----6-6-6-------6-6-6------------------------|   X2
D |-------------------7-7-------6-6-------4-4-4-------2-2--------------------|
A |--------------------------------------------------------------------------|
E |--------------------------------------------------------------------------|

A               D              F#m
   There's a key that opens a door 
            E  
 Will you find it and turn it? 
A              D                   F#m      E
   Take your time, don't take too long 
A             D                  F#m 
   There's a map that's washed ashore
            E
 Will you find it and burn it? 

A              D 
 Unleash your imagination 
F#m              E
 Two stars, one constellation
A                        D
 Bright lights just to guide the way 
          F#m        E  
 Can you see what I see in you? 

A                D
I can't wait one minute more 
F#m
The sun does shine
E 
The sun does shine
A                 D
We can't wait one minute more
F#m 
The sun does shine
E 
The sun does shine 

A                D
I can't wait one minute more 
F#m
The sun does shine
E 
The sun does shine
A                 D
We can't wait one minute more
F#m 
The sun does shine
E 
The sun does shine 

e |--------------------------------------------------------------------------|
B |--------------------------------------------------------------------------|
G |-------------6-6-6-----6-6-6-----6-6-6-------6-6-6------------------------|   X2
D |-------------------7-7-------6-6-------4-4-4-------2-2--------------------|
A |--------------------------------------------------------------------------|
E |--------------------------------------------------------------------------|


Finish with A chord | Termina con el acorde de LA.

Enjoy it and dancing | Disfrútenla y  a bailar.

************************************

| /   slide up
| \   slide down
| h   hammer-on
| p   pull-off
| ~   vibrato
| +   harmonic
| x   Mute note
| b   Bend
| pb  Pre-bend
| br  Bend release
| pbr Pre-bend release
| brb Bend release bend

************************************    

Added On May 27th, 2014

SHARE

Comments

blog comments powered by Disqus

ADVERTISEMENT