Carbon Leaf Tabs

Christmas At Sea

1 versions

TAB

            This is my first tab, I was distraught that these tabs weren't on here (or anywhere), so 
I set out to do it myself, and here it is.

The first two lines are exactly as they are in the song, but after that he does a bunch 
of different variations that I didn't bother picking out.

e|-2--5--0--2----------------------------0-----------------------|
B|-------------3-----2-----0-----3--0/2-------2------------------|
G|---------------------------------------------------------------|
D|-0-------------------------------------------------------------|
A|-------4--2-----2--0--------------0-------0--------------------|
E|----------------------3-----3----------------------------------|

e|-2--5--0--2--------------0------------------0-----------0------|
B|-------------3-----2--3-------0-----3--0/2--------2--3---------|
G|---------------------------------------------------------------|
D|-0-------------------------------------------------------------|
A|-------4--2-----2--0-------------------0-------0---------------|
E|---------------------------3-----3-----------------------------|


Of course he does this throughout the verse.

Chorus (chords):

D          Bm    A
And I apologize

             G
It's late at night and if my mind is drifting

A
Just let it slide


Repeat and enjoy!
-Travis L    

Added On December 16th, 2013

SHARE

Comments

blog comments powered by Disqus

ADVERTISEMENT