Carissas Wierd Tabs

Halfway Spoken Heart That Feels Comfort In Everything Until It Dissapears And Then Its Gone

1 versions

TAB

            -------------------------------------------------------------------------------
                             Halfway Spoken Heart That Feels Comfort In Everything 
Until It Dissapears And Then It’s Gone - Carissa's Wierd
-------------------------------------------------------------------------------
Tabbed by: ivadell
E-mail: sadstyle36@hotmail.com

Tuning: standard, 1/2 step down



e|-----2---------2--------2--------2-----------------------------------------|
B|---------------------------------------------------------------------------|
G|-2--------2---------2--------2-------------2--------2--------2--------2----|
D|---0---0-----0---0----0---0----0---0-----0---0----0---0----0---0----0---0--|
A|---------------------------------------4--------4--------4--------4--------|
E|---------------------------------------------------------------------------|

------------------------------------|
------------------------------------|
-----0--------0--------0--------0---|
---0---0----0---0----0---0----0---0-|
-2--------2--------2--------2-------|
------------------------------------|    

Added On December 16th, 2013

SHARE

Comments

blog comments powered by Disqus

ADVERTISEMENT