Carlos Santana Tabs

All I Ever Wanted

1 versions

TAB

            All I Ever Wanted Tab by Carlos Santana


Date: Thu, 12 Oct 2000 12:53:24 -0400
From: jordan L 
Subject: s/santana/all_i_ever_wanted.tab

Song: All I ever wanted
Artist: Santana
Album: Best Of Santana
Transcribed by jordanlockert@yahoo.com

Tablature Explanation:
h=hammer-on
p=pull-off
/=slide up
=slide down
b=bend half
^=bend full
br, ^r=bend & release
///////= tremolo pick

A lot of the riffs are repeated in the song so I only wrote them
once. They are in order of appearance.

Intro
|-(0:12)---------------------------------------|
|----------------------------------------------|
|----------------------------------------------|
|-------------0------------------------2-------|
|-------0-1-2--------------------0-1-2---------|
|-4---4---------2----------4---4---------0-----|

play along with lyrics:
|-----------------------------------------------------------------------------|
|-9--12-----------------------------------------------------------------------|
|-------11^r-9-9-11^r~~~~~~~~----11^--11-9-11-11-9~~~~~~~~~~------------------|
|-----------------------------------------------------------------------------|
|-----------------------------------------------------------------------------|
|-0:30----------------------------0:35----------------------------------------|


---------------------------------------12-12-12---12------12------14^-12-10--|
--/9---12-12-9-12-9-12^r~~~~~~~~~---------------------14------14-------------|
-----------------------------------------------------------------------------|
-----------------------------------------------------------------------------|
-----------------------------------------------------------------------------|
-0:40----------------------------------0:43----------------------------------|


|-0:46------------------------------|
|-----------------------------------|
|-----------------------------------|
|-----------------------------------|
|-------2-5-2-4---------2-5-2-4-----|
|-0-0-4---------0---0-4-------------|


|-------------------|
|-------------------|
|-4-4-4-4-4-4-4-4---|
|-2-2-2-2-2-2-2-2---|
|-------------------|
|-1:04--------------|


|-----------------------------------------|
|-----------------------------------------|
|-2---------------------------------------|
|-0----------2----------------------------|
|------------0-----------2-----------2----|
|-1:07-chorus------------0-----------0----|


|---------------------------------------|
|---------------------------------------|
|-------------7-------------------------|
|-6---6-7-8-9-----6---6-7-8-9-----------|
|---------------9-------------7---------|
|-1:16----------------------------------|


|-----------------------------------------------------------------------|
|-----------------------------------------------------------------------|
|-------------7---------------9---------------7---------------9---------|
|-6---6-7-8-9-----6---6-7-8-9-----6---6-7-8-9-----6---6-7-8-9-----------|
|---------------9---------------7---------------9---------------7-------|
|-1:45------------------------------------------------------------------|


|-1:51------------------------------------------------------------|
|-----------------------------------------------------------------|
|-----------------------------------------------------------------|
|-2------------------------------2--------------------------------|
|---5-4-2------------------2-4-2-----5-4-2-----------------2-4-2--|
|---------3-2-0---2-3-4--------------------3-2-0---2-3-4----------|


There are two guitars playing here. The second guitar part is harder to hear
but is better. There isn't all that much to guitar one's part.

Guitar 1:
|-1:57-----------------------------------10--------------------------10---|
|------------------------------------/13-------------------------/13------|
|-------------------------------------------------------------------------|
|-----------------7-9-7---------------------------------------------------|
|-5-------5-5-/9----------------------------------------------------------|
|-------------------------------------------------------------------------|

Guitar 2:
|-----------------------------------------------------------------------------|
|-------------------------------------------10----10------12---12p10----10----|
|----------11-9-------------------------/11----11------11-----------11--------|
|-12///////-------11---9--------12/////---------------------------------------|
|--------------------------12-------------------------------------------------|
|-1:57------------------------------------------------------------------------|


---------------------------------------------------------------------------|
--------------10-----------------------------------------------------------|
----------/11----9h11-9----------------------------------------------------|
-12//////-----------------11---9h11p9---------12~~~~~~~~~~~~~~~~~~~~~~-----|
----------------------------------------12---------------------------------|
---------------------------------------------------------------------------|

Solo:
|----------------------------------------------------------------------------|
|-15^-15^---------------15^------r15--r15--r15-r15-r15-r15-r15r15-12h14-12---|
|----------------------------------------------------------------------------|
|--------------------------------pre bend and pick and release---------------|
|----------------------------------------------------------------------------|
|-2:27-----------------------------------------------------------------------|


---------12-14-14br-12----12-15^-----15^-15^-15^r-17-17-15^-17-17r15----------|
---12h14---------------14-----------------------------------------------------|
------------------------------------------------------------------------------|
------------------------------------------------------------------------------|
------------------------------------------------------------------------------|
--2:37--------------------------------------------------------------------