Carly Rae Jepsen Tabs

Call Me Maybe Acoustic

1 versions

TAB

            -------------------------------------------------------------------------------
                             Call Me Maybe - Carly Rae Jespen
-------------------------------------------------------------------------------
Tabbed by: Nick Hepburn
Email: nick8_gnr@hotmail.com

Tuning: standard with capo 6th

Tabbed from this video of her performing it live:
http://www.youtube.com/watch?v=yq_yDXHPm0k

Main Chords
Plucked for intro and verse
Strummed for pre-chorus

  Am  F        C  G
e|-------------0---------|
B|-1--1--------1--0------|
G|-2--2-----------0------|
D|----3------------------|
A|-0-----------3---------|
E|----------------3------|

1st Chorus
   F               G
e|---------------------------------| X4
B|-1-1-1-1-1-1-1-1-----------------|
G|-2-2-2-2-2-2-2-2-0-0-0-0-0-0-0-0-|
D|-3-3-3-333-3-3-3-0-0-0-0-0-0-0-0-|
A|-3-3-3-3-3-3-3-3-2-2-2-2-2-2-2-2-|
E|-----------------3-3-3-3-3-3-3-3-|

Verse

Pre-Chorus

2nd Chorus
   F               G
e|---------------------------------| X4
B|-1-1-1-1-1-1-1-1-----------------|
G|-2-2-2-2-2-2-2-2-0-0-0-0-0-0-0-0-|
D|-3-3-3-333-3-3-3-0-0-0-0-0-0-0-0-|
A|-3-3-3-3-3-3-3-3-2-2-2-2-2-2-2-2-|
E|-----------------3-3-3-3-3-3-3-3-|

  Am  F             C  G
e|------------------0----------------| X4
B|-1--1-1-1-1-1-1-1-1----------------|
G|-2--2-2-2-2-2-2-2-0--0-0-0-0-0-0-0-|
D|-2--3-3-3-3-3-3-3-2--0-0-0-0-0-0-0-|
A|-0--3-3-3-3-3-3-3-3--2-2-2-2-2-2-2-|
E|---------------------3-3-3-3-3-3-3-|



************************************

| /   slide up
| \   slide down
| h   hammer-on
| p   pull-off
| ~   vibrato
| +   harmonic
| x   Mute note
| b   Bend
| pb  Pre-bend
| br  Bend release
| pbr Pre-bend release
| brb Bend release bend

************************************    

Added On December 16th, 2013

SHARE

Comments

blog comments powered by Disqus

ADVERTISEMENT