Cartel Tabs

Matter Of Time

3 versions

TAB

            Matter Of Time Tab by Cartel


-----------------------------------------------------
             Matter Of Time - Cartel
-----------------------------------------------------
Tabbed by: Rob Lewis

Tuning: drop D


Intro/Verse: guitar 1
e|-----------------------------------------|
B|-----------------------------------------|
G|-6-6-6-6-6-6-6-6-------------------------|
D|-8-8-8-8-8-8-8-8-11-11-11-10-10-10-10-11-|
A|-8-8-8-8-8-8-8-8-9--9--9--9--9--9--9--9--|
D|-----------------------------------------|

e|-------------------------------------------------|
B|-------------------------------------------------|
G|-10-10-10-10-10-10-10-10-10-10-10-8--8--8--8--8--|
D|-11-11-11-11-11-11-11-11-11-11-11-10-10-10-10-10-| x4
A|-------------------------------------------------|
D|-------------------------------------------------|

Verse: guitar 2 (listen for when it comes in)
e|-----------------------------------------------------|
B|-----------------------------------------------------|
G|--------10----------10-----------10-11p10-8-10-11-13-|
D|---8-11--------8-11-----------11---------------------| x2
A|-8-------------------------11------------------------|
D|-----------------------------------------------------|


Chorus: guitar 1 (distorted)
e|----------------------------|
B|----------------------------|
G|---------------6------------|
D|-8------4------6-x16--6-----| x2
A|-8-x16--4-x16--4------6-x16-|
D|-8------4-------------6-----|

chorus: guitar 2 (clean)
e|-----------------13----13----13---------------------------------|
B|-1614--1614--16----14----14------1614--1614--16--1311--1411--14-|
G|-----13----13--13----13----13--13----13----13--13----13----13---|
D|----------------------------------------------------------------| x2
A|----------------------------------------------------------------|
D|----------------------------------------------------------------|

Intro/Verse
Chorus x2


Breakdown
e|--------------------------|
B|--------------------------|
G|--------------------------|
D|-4-4--8-8--6-6--6-6--6--6-| x2
A|-4-4--8-8--6-6--6-6--6--6-|
D|-4-4--8-8--6-6--6-6--6--6-|
pm...........................

e|--------------------------|
B|--------------------------|
G|--------------------------|
D|-4-4--8-8--6-6--6-6--6--6-| x4
A|-4-4--8-8--6-6--6-6--6--6-|
D|-4-4--8-8--6-6--6-6--6--6-|

e|-----------------|
B|-----------------|
G|-----------------|
D|-4----8----6-----| x4
A|-4-x3-8-x3-6-x10-|
D|-4----8----6-----|


Outro
e|-----------------------------|
B|-----------------------------|
G|-----------------------------|
D|-4-4--8-8--6-6--6-6----------|
A|-4-4--8-8--6-6--6-6--8-6-4-6-|
D|-4-4--8-8--6-6--6-6----------|

e|---------------|
B|---------------|
G|---------------|
D|-4-4--8-8--6-6-|
A|-4-4--8-8--6-6-|
D|-4-4--8-8--6-6-|    

Added On December 4th, 2013

SHARE

Comments

blog comments powered by Disqus

VERSIONS

ADVERTISEMENT