Cccp Tabs

Curami

1 versions

TAB

            intro
e|------------------------------|
b|------------------------------|
g|------------------------------|    X 4 volte
d|-7-7-7-7---4-4-4-4------------|
a|-5-5-5-5---2-2-2-2---4-4-4-4--|
E|---------------------2-2-2-2--|


strofa
e|--------------------|
b|--------------------|
g|--------------------|    X 4 volte
d|-9-9--9---7-7--7----|
a|-7-7--7---5-5--5----|
E|--------------------|


poi guitar 2 riprende col tema dell'intro invece guitar 1 fa:

e|-----------------------------------------------|
b|-7-7-7---7----3-3-3---3----------3---3---4-4-3-|
g|-------7------------4------4-4-4---4---4-------|    
d|-----------------------------------------------|
a|-----------------------------------------------|
E|-----------------------------------------------|


e|----------------------------------------------------------------------------------------|
b|-7-7-7---7---10-10-10----10----------3---3---4-4-3----7---7---7---7---7---7---7---7-----|
g|-------7--------------11-------4-4-4---4---4------------7---7---7---7---7---7---7---7---|
d|----------------------------------------------------------------------------------------|   
a|----------------------------------------------------------------------------------------|   
E|----------------------------------------------------------------------------------------|


poi riprende ad alternare il tema dell'intro e il tema 2

poi il basso fa: tema 3
g|---------------------------|
d|----0----0----0----0-------|
a|---------------------------|
E|-10---10---10---10---11-11-|
 
poi voce: sono una terapia sono una terapia sono una terapia ecc.

poi il basso riprende tema 3 e la chitarra rimane sull'accordo d|-10
                                                               a|-10
                                                               E|-8    

Added On December 16th, 2013

SHARE

Comments

blog comments powered by Disqus

ADVERTISEMENT