Charles Bronson Tabs

Second Hand Choke

1 versions

TAB

            (VERSE 1)
e |-------------------------------------------------|
B |-------------------------------------------------|
G |-------------------------------------------------|
D |---------------7-7-7--5--------------------------| x4
A |-9-9-9--7-7-7--5-5-5--3-5------------------------|
E |-7-7-7--5-5-5-----------3------------------------|

(VERSE 2)
e |-------------------------------------------------|
B |-------------------------------------------------|
G |-------------------------------------------------|
D |--------8-8-8--5-5-5--6-6-6---------8-8-8--5-5-6-| x2
A |-7-7-7--6-6-6--3-3-3--4-4-4--7-7-7--6-6-6--3-3-4-|
E |-5-5-5-----------------------5-5-5---------------|

(VERSE 1)
e |-------------------------------------------------|
B |-------------------------------------------------|
G |-------------------------------------------------|
D |---------------7-7-7--5--------------------------| x4
A |-9-9-9--7-7-7--5-5-5--3-5------------------------|
E |-7-7-7--5-5-5-----------3------------------------|

(VERSE 2)
e |-------------------------------------------------|
B |-------------------------------------------------|
G |-------------------------------------------------|
D |--------8-8-8--5-5-5--6-6-6---------8-8-8--5-5-6-| x2
A |-7-7-7--6-6-6--3-3-3--4-4-4--7-7-7--6-6-6--3-3-4-|
E |-5-5-5-----------------------5-5-5---------------|    

Added On December 16th, 2013

SHARE

Comments

blog comments powered by Disqus

ADVERTISEMENT