Chevelle Tabs

Forfeit

4 versions

TAB

            Forfeit Tab by Chevelle


Tabbed by:Nicole
Email:downguitar@yahoo.com

Tuning:STANDARD
    intro and verse
e|-----------------------------------------------------------------------------|
B|-----------------------------------------------------------------------------|
G|-----------------------------------------------------------------------------|
D|-----------------------------------------------------------------------------|
A|-----------------------------------------------------------------------------|
E|-33XXXX33333-XXXXX-3333-XXXXX--4444222211-XXXXX-1111XXXXX-1111XXXXX-11112222-|

   chorus
e|---------------------------------------------------------------------------|
B|---------------------------------------------------------------------------|
G|-----------repeat4x--------------4x----------------------------------------|
D|----------------------4000000----------------------------------------------|
A|----------------------4000000----------23332444----------------------------|
E|--4000000-------------4000000----------23332444----------------------------|
     
  middle
e|---------------------------------------------------------------------------|
B|---------------------------------------------------------------------------|
G|---------------------------------------------------------------------------|
D|---888888-----888888-----888888---------------888888-----777777----999979--|
A|-33-------3333-------3333--------44442222--11--------1111------1111--------|
E|-33-------3333-------3333--------44442222--11--------1111------1111--------|

e|---------------------------------------------------------------------------|
B|---------------------------------------------------------------------------|
G|----------------------------Repeat as needed-------------------------------|
D|-------------33------------------------------------------------------------|
A|-------------33-3333-------------------------------------------------------|
E|-------------33------------------------------------------------------------|
    so step up...
e|---------------------------------------------------------------------------|
B|---------------------------------------------------------------------------|
G|---------------------------------------------------------------------------|
D|---------------------------------------------------------------------------|
A|---------------------------------------------------------------------------|
E|---------------------------------------------------------------------------|

email me if you have any questions or comments    

Added On December 4th, 2013

SHARE

Comments

blog comments powered by Disqus

VERSIONS

ADVERTISEMENT