Children Of Bodom Tabs

Homeland Ii Shining

1 versions

TAB

            Thats my version of the song.

e|---------------------------------------------|
B|----8-10-----------11-13-----------6-8-------|
G|-9-------7-----12--------10-----7------5-----|
D|---------------------------------------------|
A|---------------------------------------------|
E|---------------------------------------------|

e|---------------------------------------------|
B|-8-6-------------8-10----------8-10----------|
G|-----9-7------7-------7-----9-------9--------|
D|---------------------------------------------|
A|---------------------------------------------|
E|---------------------------------------------|

e|---------------------------------------------|
B|----8-10-------------------------------------|
G|-9-------7---7h9h7-5-------------------------|
D|---------------------7--9h10h9---------------|
A|---------------------------------------------|
E|---------------------------------------------|

repeat x2    

Added On December 16th, 2013

SHARE

Comments

blog comments powered by Disqus

ADVERTISEMENT