Chiodos Tabs

No Hardcore Dancing In The Living Room

2 versions

TAB

            No Hardcore Dancing In The Living Room Tab by Chiodos


----------------------------------------------------------------------------
            No Hardcore Dancing In The Living Room -Chiodos
----------------------------------------------------------------
Tabbed by: Chiodosss any probs. im me at xsaosinx06
Email:erebus@adelphia.net

I dont have the amount of times to play each part or the melody so ur gonna
have to listen to the song to figure it out.

Tuning:D A D G B e

      CLEAN
e|----------------------------------------------------------------------------|
B|----------------------------------------------------------------------------|
G|----------------------------------------------------------------------------|
D|------5---------------------------------7-----------------------------------|
A|------7----5--4--7--5--4--4h5-----------9---7---6---9---7--6h7--------------|
D|----------------------------------------------------------------------------|

   DISTORTION
e|----------------------------------------------------------------------------|
B|----------------------------------------------------------------------------|
G|-----7---5---4----7---5--4/5--------9---7---6---9---7---6/7-----------------|(1 time)
D|----------------------------------------------------------------------------|
A|-----5---3---2----5---3--2/3--------7---5---4---7---5---4/5-----------------|
D|----------------------------------------------------------------------------|

e|----------------------------------------------------------------------------|
B|----------------------------------------------------------------------------|
G|-----7---5---4---7---5---4/5--------9---7---6----777---999---1010-----------|(1 time)
D|----------------------------------------------------------------------------|
A|-----5---3---2---5---3---2/3--------7---5---4----555---777----8-8-----------|
D|----------------------------------------------------------------------------|


(This played in the verse also by guitar 1)
e|------------------------------------------------------------7-8-9-10----|
B|---------------------------------------------------7-8-9-10-------------|
G|--------7-8-9-10-------10-9-8-----------7-8-9-10------------------------|
D|------------------------------------------------------------------------|
A|--00--------------00--------------00------------------------------------|
D|--00--------------00--------------00------------------------------------|
    **              **              **   (repeat a couple of times)

e|-------------------------------------------------------------------------|
B|-------------------------16-----------------------------15h16-17h18--20--|
G|--------12-13-14-15-------------------12-13-14-15------------------------|
D|-------------------------------------------------------------------------|
A|--00-------------------------------00------------------------------------|
D|--00-------------------------------00------------------------------------|
    **                               **    (repeat a couple of times)

        Verse Guitar 2
e|--------------------------------------------------------------------|
B|--------------------------------------------------------------------|
G|-------77--88--99--1010--1010--99--88-88----------------------------|
D|--------------------------------------------------------------------|
A|-------55--66--77---8-8--8-8---77--66-66----------------------------|
D|--------------------------------------------------------------------|

(Baby this wont get any easier)
e|-----------------------|
B|----------6--------66--|(repeat a couple a times then
G|----------9--------99--|
D|-----------------------|
A|----00--------000------|
D|----00--------000------|
      **        ***
e|----------------------------------------------------------------------|
B|---------6------7-----8---------(repeat a couple times)---------------|
G|---------9------10----11----------------------------------------------|
D|----------------------------------------------------------------------|
A|----00----------------------------------------------------------------|
D|----00----------------------------------------------------------------|
      **
e|----------------------------------------------------------------|
B|----------------------------------------------------------------|
G|--xxx---555555----9---99999----10/9-10/9----7777777-------------|
D|----------------------------------------------------------------|
A|--xxx---333333----7---77777-----8/7-8/7-----5555555-------------|
D|----------------------------------------------------------------|

(dont let this die we may never fall in love again)
e|------------------------------------------------------------------------|
B|------------------------------------------------------------------------|
G|-----55555---7---99999--10/9---------------------10/9-10/9---7--555555--|
D|------------------------------------------------------------------------|
A|-----33333---5---77777---8/7---77--777--77--777---8/7--8/7---5--333333--|
D|-------------------------------77--777--77--777-------------------------|
                                   **  ***  **  ***
e|---------10--|
B|---------9---|(just scratch around this to get the sound from the song)
G|---------7---|
D|---------0---|
A|-------------|
D|-------------|

e|----------------------------------------------------------------------------|
B|---------66-66-6---7--7--7-7--7----8-8--8-8--8----9-9--9-9-9----------------|
G|---------99-99-9---1010-1010-10---1111-1111-11---1212-1212-12---------------|
D|----------(kinda bend these a little)---------------------------------------|
A|----------------------------------------------------------------------------|
D|----------------------------------------------------------------------------|

e|----------------------------------------------------------------------------|
B|-------------55---------7-7----------55---------7-7--1010-1111--------------|
G|-------------88---------1010---------88---------1010-1313-1414--------------|
D|----------------------------------------------------------------------------|
A|-----------------000------------000---------000-----------------------------|
D|-----------------000------------000---------000-----------------------------|
                   ***            ***         ***
| /  slide up
| \  slide down
| h  hammer-on
| p  pull-off
| ~  vibrato
| +  harmonic
| x  Mute note
===============================================================================No Hardcore Dancing In The Livingroom Tab by Chiodos


       =========================Chiodos============================
================No hardcore dancing in the living room==================
       ================Alls Well that Ends Well====================

This is one of the sweetest songs on the cd because the entire thing is practicly one sweet breakdown.
Tuning:Drop D
some parts are quite difficult

      =  =  =  =  =  = ======Intro====== =  =  =  =  =  =  =
 Repeat 3 times
|------------------------------------------------------------------|
|-10------------------------------11-------------------------------|
|------------------------------------------------------------------|
|------------------------------------------------------------------|
|-8-----7----5-----8----7---57----10----8----7----10----8--78------|
|---00----00---00----00---0----------00---00---00----00---0--------|


|------------------------------------------------------------------|
|-10------------------------------11-------------------------------|
|------------------------------------------------------------------|
|------------------------------------------------------------------|
|-8-----7----5-----8----7---57----10----8----7----10---12--8-10----|
|---00----00---00----00---0----------00---00---00----00---0--------|


|------------------------------------------------------------------|
|------------------------------------------------------------------|
|10--99--77-10-9-7-9--12-10-9--12-10--9-10-------------------------|
|xx--xx--xx--x-x-x-x---x--x-x---x--x--x--x-------------------------|
|88--77--55--8-7-5-7--10--8-7--10--8--7--8-------------------------|
|------------------------------------------------------------------|


1:17
breakdown #1 plays twice then a couple times through background
|------------------------------------------------------------------|
|------------------------------------------------------------------|
|----10-----------10---------10------12---------14-----------------|
|-00---8-7-8-000-----7-0-00----8-7-8---11-10-11----13-12-----------|
|-00---------000---------00----------------------------------------|
|-00---------000---------00----------------------------------------|

part2
|------------------------------------------------------------------|
|--99-15-15-15-15-15-15-14-----------------------------------------|
|------------------------------------------------------------------|
|------------------------------------------------------------------|
|------------------------------------------------------------------|
|------------------------------------------------------------------|

fast tremelo picking.
|----1313-----1515-----1717-------1818-----------------------------|
|----1515-----1717-----1818-------2020-----------------------------|
|------------------------------------------------------------------|
|-00------000-------00-------000-----------------------------------|
|-00------000-------00-------000-----------------------------------|
|-00------000-------00-------000-----------------------------------|

piano....
"shredded by state lines"
..............
baby...this wont get any easier
|---1-----11-----0-----00-----1------11-------0------00------------|
|---3-----33-----2-----22-----3------33-------2------22------------|
|---2-----22-----2-----22-----2------22-------2------22------------|
|-0---000------0---000-----0----000------0-------000---------------|
|-0---000------0---000-----0----000------0-------000---------------|
|-0---000------0---000-----0----000------0-------000---------------|
play twice

|------------------------------------------------------------------|
|------------------------------------------------------------------|
|-101010--14-14---15-15-14-14-15-15-14-14--17-17-------------------|
|--xxxxx---x--x----x--x--x--x--x--x--x--x---x--x-------------------|
|--88888--12-12---13-13-12-12-13-13-12-12--15-15-------------------|
|------------------------------------------------------------------|

then
|------------------------------------------------------------------|
|------------------------------------------------------------------|
|10101010--14-14---------------------------------------------------|
|-x-x-x-x---x--x-----00-0000---33-3333---888888-1010101010---------|
|-8-8-8-8--12-12-----00-0000---33-3333---888888-1010101010---------|
|--------------------00-0000---33-3333---888888-1010101010---------|
                     .. ....   .. ....
strum freely with all but low E open
|-0--0--0--0--0--0--0--0--0--0--0--0--0--0--0--0--0--0--0--0--0--0-|
|-0--0--0--0--0--0--0--0--0--0--0--0--0--0--0--0--0--0--0--0--0--0-|
|-0--0--0--0--0--0--0--0--0--0--0--0--0--0--0--0--0--0--0--0--0--0-|
|-0--0--0--0--0--0--0--0--0--0--0--0--0--0--0--0--0--0--0--0--0--0-|
|-0--0--0--0--0--0--0--0--0--0--0--0--0--0--0--0--0--0--0--0--0--0-|
|------------------------------------------------------------------|

Do some pick slides on the upper strings to get the cool sound effects from the song.
then..

|-1-1---1-1----1----0-0-----0-0----0-----3-3---3-3---3---5-5---5-5---5|
|-3-3---3-3----3----1-1-----1-1----1-----5-5---5-5---5---6-6---6-6---6|
|---------------------------------------------------------------------|
|0-----0------0----0------0------0----0------0-----0---0-----0-----0--|
|0-----0------0----0------0------0----0------0-----0---0-----0-----0--|
|0-----0------0----0------0------0----0------0-----0---0-----0-----0--|
 .     .      .    .      .      .    .      .     .   .     .     .
|55-----55-----55-----55-44-------------------------------------------|
|66-----66-----66-----66-55-------------------------------------------|
|77-----77-----77-----77-66-------------------------------------------|
|---000----000----000-------------------------------------------------|
|---000----000----000-------------------------------------------------|
|---000----000----000-------------------------------------------------|

repeat that a couple times and your done..
hard song but good song.

fun to play.

and comments or hate mail send to Sk8WrL909@aol.com

~RonaldotheGreat
E>    

Added On December 4th, 2013

SHARE

Comments

blog comments powered by Disqus

VERSIONS

ADVERTISEMENT