Chiodos Tabs

The Words Best Friend Become Redefined

7 versions

TAB

            The Words Best Friend Become Redefined Tab by Chiodos


Ok, the tabs on this site for this song are either not very accurate, or poorly written. 
why don't you make one?" Well i am. Here it is, a very cool song from a shitty band. 
i said it.


INTRO
(ok, the little weird part at the end of this thing is too hard for me but no one else 
it right so i just bend the string back and forth really fast. it sounds pretty fresh.)
guitar1
e------------------------------------------------------------|
B------------------------------------------------------------|
G------------------------------------------------------------|
D-------------7p0-5p0-5p0-3p0-3p0-2p0-2p0-2p0-3p0-2p0-2p0----|
A-5p0-5p0-5p0---------------------------------------------4~-|
D------------------------------------------------------------|
guitar2
e------------------------------------------------------------|
B------------------------------------------------------------|
G------------------------------------------------------------|
D------------------------------------------------------------|
A------------------------------------------------------------|
D------------------------------------------------------------|


guitar1
e-----------------------------------------------------------------|
B-----------------------------------------------------------------|
G-----------------------------------------------------------------|
D-------------7p0-5p0-5p0-3p0-3p0-5p0-5p0-5p0-7p0-8p0-8p0-7p0-7p0-|
A-5p0-5p0-5p0-----------------------------------------------------|
D-----------------------------------------------------------------|
guitar2
e-----------------------------------------------------------------|
B-----------------------------------------------------------------|
G-----------------------------------------------------------------|
D-----------------------------------------------------------------|
A-----------------------------------------------------------------|
D-----------------------------------------------------------------|


guitar1
e------------------------------------------------------------|
B------------------------------------------------------------|
G------------------------------------------------------------|
D-------------7p0-5p0-5p0-3p0-3p0-2p0-2p0-2p0-3p0-2p0-2p0----|
A-5p0-5p0-5p0---------------------------------------------4~-|
D------------------------------------------------------------|
guitar2
e------------------------------------------------------------|
B------------------------------------------------------------|
G------------------------------------------------------------|
D------------------------------------------------------------|
A------------------------------------------------------------|
D------------------------------------------------------------|


guitar1
e-----------------------------------------------------------------|
B-----------------------------------------------------------------|
G-----------------------------------------------------------------|
D-------------7p0-5p0-5p0-3p0-3p0-5p0-5p0-5p0-7p0-8p0-8p0-7p0-7p0-|
A-5p0-5p0-5p0-----------------------------------------------------|
D-----------------------------------------------------------------|
guitar2
e-----------------------------------------------------------------|
B-----------------------------------------------------------------|
G-----------------------------------------------------------------|
D-----------------------------------------------------------------|
A-----------------------------------------------------------------|

now guitar 2 comes in


guitar1
e------------------------------------------------------------|
B------------------------------------------------------------|
G------------------------------------------------------------|
D-------------7p0-5p0-5p0-3p0-3p0-2p0-2p0-2p0-3p0-2p0-2p0----|
A-5p0-5p0-5p0---------------------------------------------4~-|
D------------------------------------------------------------|
guitar2
e------------------------------------------------------------|
B------------------------------------------------------------|
G----7-----------------10---------------------------9--------|
D----x------------------x---------------------------x--------| stop on this one
A----5------------------8---------------------------7--------|
D------------------------------------------------------------|
(just strum these chords, im not gonna write em out ok. )

guitar1
e-----------------------------------------------------------------|
B-----------------------------------------------------------------|
G-----------------------------------------------------------------|
D-------------7p0-5p0-5p0-3p0-3p0-5p0-5p0-5p0-7p0-8p0-8p0-7p0-7p0-|
A-5p0-5p0-5p0-----------------------------------------------------|
D-----------------------------------------------------------------|
guitar2
e-----------------------------------------------------------------|
B-----------------------------------------------------------------|
G----6----------------10-------------------------------9----------|
D----x-----------------x-------------------------------x----------|
A----4-----------------8-------------------------------7----------|
D-----------------------------------------------------------------|

guitar1
e------------------------------------------------------------|
B------------------------------------------------------------|
G------------------------------------------------------------|
D-------------7p0-5p0-5p0-3p0-3p0-2p0-2p0-2p0-3p0-2p0-2p0----|
A-5p0-5p0-5p0---------------------------------------------4~-|
D------------------------------------------------------------|
guitar2
e------------------------------------------------------------|
B------------------------------------------------------------|
G----7-----------------10---------------------------9--------|
D----x------------------x---------------------------x--------| stop on this one
A----5------------------8---------------------------7--------|
D------------------------------------------------------------|


guitar1
e-----------------------------------------------------------------|
B-----------------------------------------------------------------|
G-----------------------------------------------------------------|
D-------------7p0-5p0-5p0-3p0-3p0-5p0-5p0-5p0-7p0-8p0-8p0-7p0-7p0-|
A-5p0-5p0-5p0-----------------------------------------------------|
D-----------------------------------------------------------------|
guitar2
e-----------------------------------------------------------------|
B-----------------------------------------------------------------|
G----6----------------10-------------------------------9----------|
D----x-----------------x-------------------------------x----------|
A----4-----------------8-------------------------------7----------|
D-----------------------------------------------------------------|

Then the little piano part.

SOLO

guitar1
e----------------------------------------------------|
B---15~~~13-15~~~17-13~~~13~~~10~~~--10~~~11~~~13~~~-|
G----------------------------------12----------------|
D----------------------------------------------------|
A----------------------------------------------------|
D----------------------------------------------------|
guitar2
e---------------------------------------------------|
B---------------------------------------------------|
G---7---------------5---------2-----------3-----5---|
D---x---------------x---------2-----------x-----x---|
A---5---------------3---------0-----------1-----3---|
D---------------------------------------------------|
(listen for timing for the strumming)


after solo, same type a deal but no soloey part, i dunno.
o ya this part is not right, i dont't know what is, but the ones on this site are crap, 
that i could do better, but at least i am saying this is not the right thing. it sounds 
though.

guitar1
e------------------------------------------|
B------------------------------------------|
G---19-----------17------14-----15------17-|
D----x------------x-------x------x-------x-|
A---17-----------15------12-----13------15-|
D------------------------------------------|
guitar2
e------------------------------------------|
B------------------------------------------|
G---7-------------5-------2------3-------5-|
D---x-------------x-------2------x-------x-|
A---5-------------3-------0------1-------3-|
D------------------------------------------|

o yes, the time has come.

BREAKDOWN


guitar1
e----------------------------------|
B----------------------------------|
G----------------------------------|
D--00-0000-00-0000-00-0000-00-0000-|
A--00-0000-00-0000-00-0000-00-0000-|
D--00-0000-00-0000-00-0000-00-0000-|
guitar2
e----------------------------------|
B----------------------------------|
G----------------------------------|
D--00-0000-00-0000-00-0000-00-0000-|
A--00-0000-00-0000-00-0000-00-0000-|
D--00-0000-00-0000-00-0000-00-0000-|

"if your stomach is weak, then my work her is .....aHASDASHGADG!!!!

guitar1
e----10----10--10----10--10----10--10----10--12----11--10---|
B-----9-----9---9-----9---9-----9---9-----9---9-----9---9---|
G-----9-----9---9-----9---9-----9---9-----9---9-----9---9---|
D--00--0000--00--0000--00--0000--00--0000--00--0000--00--00-|
A--00--0000--00--0000--00--0000--00--0000--00--0000--00--00-|
D--00--0000--00--0000--00--0000--00--0000--00--0000--00--00-|
guitar2
e----10----10--10----10--10----10--10----10--12----11--10---|
B-----9-----9---9-----9---9-----9---9-----9---9-----9---9---|
G-----9-----9---9-----9---9-----9---9-----9---9-----9---9---|
D--00--0000--00--0000--00--0000--00--0000--00--0000--00--00-|
A--00--0000--00--0000--00--0000--00--0000--00--0000--00--00-|
D--00--0000--00--0000--00--0000--00--0000--00--0000--00--00-|

.......continued

guitar1
e----------------------------------|
B----------------------------------|
G----------------------------------|
D--00-0000-00-0000-00-0000-00-0000-|
A--00-0000-00-0000-00-0000-00-0000-|
D--00-0000-00-0000-00-0000-00-0000-|
guitar2
e----------------------------------|
B----------------------------------|
G----------------------------------|
D--00-0000-00-0000-00-0000-00-0000-|
A--00-0000-00-0000-00-0000-00-0000-|
D--00-0000-00-0000-00-0000-00-0000-|

(now this part i am not sure about but i play this and it sounds fine.)

guitar1
e-------------14h15-14--------------14h15-14----|
B-14h15-14h15---------h15-14h-14h15---------h15-|
G-----------------------------------------------|
D-----------------------------------------------|
A-----------------------------------------------|
D-----------------------------------------------|
guitar2
e----------------------------------|
B----------------------------------|
G----------------------------------|
D--00-0000-00-0000-00-0000-00-0000-|
A--00-0000-00-0000-00-0000-00-0000-|
D--00-0000-00-0000-00-0000-00-0000-|

guitar1
e-------------14h15-14--------------14h15-14----|
B-14h15-14h15---------h15-14h-14h15---------h15-|
G-----------------------------------------------|
D-----------------------------------------------|
A-----------------------------------------------|
D-----------------------------------------------|
guitar2
e----------------------------------|
B----------------------------------|
G----------------------------------|
D--00-0000-00-0000-00-0000-00-0000-|
A--00-0000-00-0000-00-0000-00-0000-|
D--00-0000-00-0000-00-0000-00-0000-|


guitar1
e-------------14h15-14--------------14h15-14----|
B-14h15-14h15---------h15-14h-14h15---------h15-|
G-----------------------------------------------|
D-----------------------------------------------|
A-----------------------------------------------|
D-----------------------------------------------|
guitar2
e----------------------------------|
B----------------------------------|
G----------------------------------|
D--00-0000-00-0000-00-0000-00-0000-|
A--00-0000-00-0000-00-0000-00-0000-|
D--00-0000-00-0000-00-0000-00-0000-|

guitar1
e-------------14h15-14--------------14h15-14----|
B-14h15-14h15---------h15-14h-14h15---------h15-|
G-----------------------------------------------|
D-----------------------------------------------|
A-----------------------------------------------|
D-----------------------------------------------|
guitar2
e----------------------------------|
B----------------------------------|
G----------------------------------|
D--00-0000-00-0000-00-0000-00-0000-|
A--00-0000-00-0000-00-0000-00-0000-|
D--00-0000-00-0000-00-0000-00-0000-|

OUTRO

guitar1
e---h15----|
B------h14-|
G----------|
D----------|
A----------|
D----------|
(just do this a whole bunch of times mkay)


That's it.  I hope you enjoy. Chiodos Suck. I just like this song. Chiodos seriously blow.    

Added On December 4th, 2013

SHARE

Comments

blog comments powered by Disqus