Chiodos Tabs

To Trixie And Reptile Thanks For Everything

2 versions

TAB

            To Trixie And Reptile Thanks For Everything Tab by Chiodos


================================Chiodos===============================
===========To trixie and reptile, thanks for everything===============

Drop D.

Easy to play

guitar1
|----------------------------------------------------------|
|----------------------------------------------------------|
|13--X-11-11-X--9-9--X--8-8--------------------------------|
|-x--X--x-x--X--x-x--X--x-x--------------------------------|
|11--X--9-9--X--7-7--X--6-6--------------------------------|
|----------------------------------------------------------|

guitar2

|----------------------------------------------------------|
|----------------------------------------------------------|
|6-X--8-8-X--9-9--X--8-8-----------------------------------|
|x-X--x-x-X--x-x--X--x-x-----------------------------------|
|4-X--6-6-X--7-7--X--6-6-----------------------------------|
|----------------------------------------------------------|


guitar1
|--------------|
|--------------|
|13-13-13-13---|
|-x--x--x--x---|
|11-11-11-11---|
|--------------|


guitar 2
|-------------|
|-------------|
|-6-6-6-6-6---|
|-6-6-6-6-6---|
|-4-4-4-4-4---|
|-------------|
  . . . . .

guitar 1 and 2
|------------|
|------------|
|6-X--8-8-X--|
|x-X--x-x-X--|
|4-X--6-6-X--|

play that throught the verses







chorus

|--------------------------|
|--------------------------|
|--6---4--2-----6---4--2---|
|--6---4--2-----6---4--2---|
|--4---2--0-----4---2--2---|
|--------------------------|



sweet interlude

+++have to be someday

|-----------------------------------------------------|
|-----------------------------------------------------|
|-----------------------------------------------------|
|-----------------------------------------------------|
|--4-4-4-4-4-4-4-4-4-4-4-4-4-4-4-4-4-4-4-4-4-4-4-4----|
|-----------------------------------------------------|

   . . . . . . . . . . . . . . . . . . . . . . . . 

This is our.....Annual.



If you believed what you felt, you would be IN LOVE!  E>

|-----------------------------------------------------------------------|
|-----------------------------------------------------------------------|
|--6-6-6-6-6-6-6-6-6-9-9-9-9-9-9-9-9-----------------11-11-11-11-11-11--|
|--x-x-x-x-x-x-x-x-x-x-x-x-x-x-x-x-x-7-7-7-7-7-7-7-7--x-x-x-x-x-x-x-x---|
|--4-4-4-4-4-4-4-4-4-7-7-7-7-7-7-7-7-7-7-7-7-7-7-7-7--9-9-9-9-9-9-9-9---|
|------------------------------------7-7-7-7-7-7-7-7--------------------|

This is our.....(scream)

|-------------------------------------------------------------------------|
|-------------------------------------------------------------------------|
|--6-6-6-6-6---9-9-9-9-9-9-9-9-11-11-11-11-11-11---------------11-11-9-9--|
|--x-x-x-x-x---x-x-x-x-x-x-x-x--x-x-x-x-x-x-x-x--7-7-7-7-7-7-7--x-x--x-x--|
|--4-4-4-4-4---7-7-7-7-7-7-7-7--9-9-9-9-9-9-9-9--7-7-7-7-7-7-7--9-9--7-7--|
|------------------------------------------------7-7-7-7-7-7-7------------|

            IF....You    BELIEVE.....................


if we believe..

and so on untill its all over....awesome song by great band "chiodos"
formally known as  the chiodos bros. from my town in michigan...peace out


~ the great ronaldo    

Added On December 4th, 2013

SHARE

Comments

blog comments powered by Disqus

VERSIONS

ADVERTISEMENT