Chris Brown Tabs

Say Goodbye

1 versions

TAB

            Someone made a video of the song, but they didn't have any tabs so I decided to tab it 
ear. If you see any mistakes, feel free to let me know. Enjoy!


e||-----------|------------0~1-1-----1---|------------------|
b||--1-----1--|---0----------------3-----|--1-----1---------|
g||------2----|---------0--------2-------|------0-----------|
d||----2------|-------2--------0---------|----2-------------|
a||--0--------|--------------------------|--3---------------|
E||-----------|---3----------------------|------------------|


e||-----------|------------0~1-1-----1---|------------------|
b||--1-----1--|---0----------------3-----|--0-----0---------|
g||------2----|---------0--------2-------|------1-----------|
d||----2------|-------2--------0---------|----2-------------|
a||--0--------|--------------------------|--2---------------|
E||-----------|---3----------------------|------------------|


e||-----------|------------0~1-1-----1---|------------------|
b||--1-----1--|---0----------------3-----|--1-----1---------|
g||------2----|---------0--------2-------|------0-----------|
d||----2------|-------2--------0---------|----2-------------|
a||--0--------|--------------------------|--3---------------|
E||-----------|---3----------------------|------------------|


e||--3----------3---|----5---------5-----|
b||------0----0-----|--------0---0-------|
g||----2----2-------|------0---0---------|
d||--3--------------|----5---------------|
a||-----------------|--------------------|
E||-----------------|--------------------|    

Added On December 16th, 2013

SHARE

Comments

blog comments powered by Disqus

ADVERTISEMENT