Chris Brown Tabs

With You

12 versions

TAB

            Tuning: Half-Step Down. You really have to tune it like this to make it sound like the 
:)

V-V-V-^-^-V-V or you can create your own.

Verses:


      E      C#m       A         B
|-----------------------------------------|
|-----------------------------------------|
|-----9-------6---------------------4-----|
|-----9-------6--------7---------9--4-----|
|-----7-------4--------7---------9or2-----|
|----------------------5---------7--------|


Bridge:


      A       B       C#m       B
|------------------------------------|
|------------------------------------|
|---------------------6--------4-----|
|-----7-------9-------6--------4-----|
|-----7-------9-------4--------2-----|
|-----5-------7----------------------|

for any messages or comment
just email me at ginosev7@yahoo.com,ginosev@gmail.com or you can add me up on yahoo! 
ginosev7@yahoo.com

Thank You. :)    

Added On December 16th, 2013

SHARE

Comments

blog comments powered by Disqus