Chuck Berry Tabs

C Est La Vie

2 versions

TAB

            C Est La Vie Chords by Chuck Berry

C'EST LA VIE (YOU NEVER CAN TELL)

Words & Music by Chuck Berry

Intro:

E-----------14--13-------------12--10------12--12--12-------|
B------------------------------------------14--14--14-------|
G---13--14----------13--12-----------------14--14--14-------|
D------------------------------------------14--14--14-------|
A------------------------------------------12--12--12-------|
E-----------------------------------------------------------|


D
D
e |---|-x-|---|---|---|
B |---|---|-x-|---|---|
G |---|-x-|---|---|---|
D |---|---|---|---|---|
A |---|---|---|---|---|
E |---|---|---|---|---|
It was a teen-aged wedding D
D
e |---|-x-|---|---|---|
B |---|---|-x-|---|---|
G |---|-x-|---|---|---|
D |---|---|---|---|---|
A |---|---|---|---|---|
E |---|---|---|---|---|
And the old folks wished them well D
D
e |---|-x-|---|---|---|
B |---|---|-x-|---|---|
G |---|-x-|---|---|---|
D |---|---|---|---|---|
A |---|---|---|---|---|
E |---|---|---|---|---|
You could see that Pierre A
A
e |---|---|---|---|---|
B |---|-x-|---|---|---|
G |---|-x-|---|---|---|
D |---|-x-|---|---|---|
A |---|---|---|---|---|
E |---|---|---|---|---|
Truly loved the mademoiselle A
A
e |---|---|---|---|---|
B |---|-x-|---|---|---|
G |---|-x-|---|---|---|
D |---|-x-|---|---|---|
A |---|---|---|---|---|
E |---|---|---|---|---|
And now the young Monsieur and Madame A
A
e |---|---|---|---|---|
B |---|-x-|---|---|---|
G |---|-x-|---|---|---|
D |---|-x-|---|---|---|
A |---|---|---|---|---|
E |---|---|---|---|---|
Have rung the chapel bell A
A
e |---|---|---|---|---|
B |---|-x-|---|---|---|
G |---|-x-|---|---|---|
D |---|-x-|---|---|---|
A |---|---|---|---|---|
E |---|---|---|---|---|
C'est La Vie say the old folks D
D
e |---|-x-|---|---|---|
B |---|---|-x-|---|---|
G |---|-x-|---|---|---|
D |---|---|---|---|---|
A |---|---|---|---|---|
E |---|---|---|---|---|
It goes to show you never can tell They furnished off the apartment With a two room tag-end sale The coolerator was crammed With TV dinners and Ginger Ale But when Pierre found work The little money come in, worked out well C'est La Vie say the old folks It goes to show you never can tell They had a hi-fi phono Boy, did they let it blast 700 little records All rock and rhythm and jazz But when the sun went down The rapid tempo of the music fell C'est La Vie say the old folks It goes to show you never can tell They bought a souped up chitney Was cherry red fifty-three Drove it down to Orleans To celebrate their anniversary It was their where Pierre was wedded To the lovely mademoiselle C'est La Vie say the old folks It goes to show you never can tell It was a teen-aged wedding And the old folks wished them well You could see that Pierre Truly loved the mademoiselle And now the young Monsieur and Madame Have rung the chapel bell C'est La Vie say the old folks It goes to show you never can tell

Added On December 4th, 2013

SHARE

Comments

blog comments powered by Disqus

VERSIONS

ADVERTISEMENT