Chuck Berry Tabs

Down The Road Apeice

1 versions

TAB

            -------------------------------------------------------------------------------
			     Down The Road Apiece - Chuck Berry
-------------------------------------------------------------------------------
Tabbed by: green_emi
Email: green_emi@hotmail.com
Tuning: STD

This is as close I could get it, it sounds OK to me but I know there's a few

dodgy notes in there somewhere or even a few might be missing. 

Didn't really put in the timing, sorry, its my first tab

I'd really appreciate any help to get it perfected!



e|----------11\-------------------------11\-----------------------------------------|
B|-------11--------------------------11---------------------------------------------|
G|-11h12---------8-8-8-------11h12---------8-8-8------------------------------------|
D|---------------8-8-8---------------------8-8-8------------------------------------|
A|----------------------------------------------------------------------------------|
E|----------------------------------------------------------------------------------|

e|--------11--------13p11------------11-9\--8hold--8---13-11-------11------------14-|
B|------11--14p13p11-----13p11-----11-------8hold--8---------13p11-11-------11-13---|
G|-11h12----------------------11h12---------8hold------------------11h12--12--------|
D|----------------------------------------------------------------------------------|
A|----------------------------------------------------------------------------------|
E|----------------------------------------------------------------------------------|

e|-14b-14b--11-----11-11-------11-----11--------------------------------------------|
B|------------13p11-------11/13--11/13----13-11-------11------------11--------------|
G|---------------------------------------------11h12----------11/13---13-11---------|
D|------------------------------------------------------13--13-------------13---8888|
A|------------------------------------------------------------------------------6666|
E|----------------------------------------------------------------------------------|



************************************

| /   slide up
| \   slide down
| h   hammer-on
| p   pull-off
| ~   vibrato
| +   harmonic
| x   Mute note
| b   Bend
| pb  Pre-bend
| br  Bend release
| pbr Pre-bend release
| brb Bend release bend

************************************    

Added On December 16th, 2013

SHARE

Comments

blog comments powered by Disqus

ADVERTISEMENT