Circa Survive Tabs

Stop The Fucking Car

2 versions

TAB

            STOP THE FUCKING CAR
As recorded by Circa Survive
(From the 2005 Album JUTURNA)

Transcribed by Cordarro Collins
	

Words and Music by Circa Survive
Arranged by Circa Survive

Gtr I (Eb Ab Db Gb Bb Eb) - 'Untitled'
Gtr II (Eb Ab Db Gb Bb Eb) - 'Untitled'
Gtr III (Eb Ab Db Gb Bb Eb) - 'Untitled'
Gtr IV (Eb Ab Db Gb Bb Eb) - 'Untitled'

 Verse
  Q=86
  Em
 4/4
  Gtr III
    W                             W
|-^-0--------------------------|-^0--------------------------|
|-^-0--------------------------|-^0--------------------------|
|-^(9)-------------------------|-^9--------------------------|
|-^-5--------------------------|-^5--------------------------|
|-^-7--------------------------|-^7--------------------------|
|------------------------------|-----------------------------|
|
| Gtr II
|   E.  S  E.  S  E.  S  E.  S    E.  S  E.  S  E.  S  E.  S
|------------------------------|-----------------------------|
|--19--17-19--17-19--17-19--17-|-19--17-19--17-20--17-20--17-|
|------------------------------|-----------------------------|
|------------------------------|-----------------------------|
|------------------------------|-----------------------------|
|------------------------------|-----------------------------|


  Bmadd11/D
   W                             W
|-^0--------------------------|-^0--------------------------|
|-^0--------------------------|-^0--------------------------|
|-^7--------------------------|-^7--------------------------|
|-^4--------------------------|-^4--------------------------|
|-^5--------------------------|-^5--------------------------|
|-----------------------------|-----------------------------|
|
|  E.  S  E.  S  E.  S  E.  S    E.  S  E.  S  E.  S  E.  S
|-----------------------------|-----------------------------|
|-19--17-19--17-19--17-19--17-|-19--17-19--17-20--17-20--17-|
|-----------------------------|-----------------------------|
|-----------------------------|-----------------------------|
|-----------------------------|-----------------------------|
|-----------------------------|-----------------------------|


  Em
   W                             W
|-----------------------------|-----------------------------|
|-----------------------------|-----------------------------|
|-^9--------------------------|-^9--------------------------|
|-^5--------------------------|-^5--------------------------|
|-^7--------------------------|-^7--------------------------|
|-----------------------------|-----------------------------|
|
|  E.  S  E.  S  E.  S  E.  S    E.  S  E.  S  E.  S  E.  S
|-----------------------------|-----------------------------|
|-19--17-19--17-19--17-19--17-|-19--17-19--17-20--17-20--17-|
|-----------------------------|-----------------------------|
|-----------------------------|-----------------------------|
|-----------------------------|-----------------------------|
|-----------------------------|-----------------------------|


  Bmadd11/D
   W                             W
|-^0--------------------------|-^0-----------------------|
|-^0--------------------------|-^0-----------------------|
|-^7--------------------------|-^7-----------------------|
|-^4--------------------------|-^4-----------------------|
|-^5--------------------------|-^5-----------------------|
|-----------------------------|--------------------------|
|
|  E.  S  E.  S  E.  S  E.  S    E.  S  E.  S  E.  S  Q
|-----------------------------|--------------------------|
|-19--17-19--17-19--17-19--17-|-19--17-19--17-20--17-20--|
|-----------------------------|--------------------------|
|-----------------------------|--------------------------|
|-----------------------------|--------------------------|
|-----------------------------|--------------------------|


  Em/G          Dadd9/F#    Em/G        Esus4/G
  Gtr III
    W            W           W           W
|-------------|-----------|-----------|-^5----|
|-^-5---------|-^5--------|-^5--------|-^5----|
|-^-4---------|-^7--------|-^4--------|-^4----|
|-^-5---------|-^4--------|-^5--------|-^5----|
|-------------|-----------|-----------|-------|
|-------------|-----------|-----------|-------|
|
| Gtr IV
|   W            W           W           W
|-^-5---------|-----------|-^2--------|-^2----|
|-^-3---------|-^7--------|-^5--------|-^5----|
|-^-4---------|-^5--------|-^4--------|-^4----|
|-^-5---------|-^7--------|-^2--------|-^2----|
|-------------|-----------|-----------|-------|
|-------------|-----------|-----------|-------|
|
| Gtr II
|   >
|  +W            W           W           W
|-------------|-----------|-----------|-------|
|-(20)--------|-----------|-----------|-------|
|-------------|-----------|-----------|-------|
|-------------|-----------|-----------|-------|
|-------------|-----------|-----------|-------|
|-------------|-----------|-----------|-------|


  Em/G        Dadd9/F#
   W           W
|-----------|-------|
|-^5--------|-^5----|
|-^4--------|-^7----|
|-^5--------|-^4----|
|-----------|-------|
|-----------|-------|
|
|  W           W
|-^5--------|-------|
|-^3--------|-^7----|
|-^4--------|-^5----|
|-^5--------|-^7----|
|-----------|-------|
|-----------|-------|


 Breakdown
  Q=156
  Em/G
  Gtr I
  W                            +W
|-0--------------------------|-(0)------------------------|
|-5--------------------------|-(5)------------------------|
|-4--------------------------|-(4)------------------------|
|-5--------------------------|-(5)------------------------|
|----------------------------|----------------------------|
|----------------------------|----------------------------|
|
| Gtr II
| E  E  E  +E   E  E  +E   E    E   +E   E  E  +E   E  Q
|----------------------------|----------------------------|
|------10-(10)-10-10-(10)----|-10--(10)-10-10-(10)----10--|
|---12---------12---------11-|----------11---------11-----|
|----------------------------|----------------------------|
|----------------------------|----------------------------|
|----------------------------|----------------------------|


   <
   W                             +W
|-[0]--------------------------|-(0)---------------------|
|-(5)--------------------------|-(5)---------------------|
|-(4)--------------------------|-(4)---------------------|
|-(5)--------------------------|-(5)---------------------|
|------------------------------|-------------------------|
|------------------------------|-------------------------|
|
|  E   E  E  +E   E  E  +E   E    E   +E   E  E  E  Q.
|------------------------------|-------------------------|
|-10-----10-(10)-10-10-(10)----|-10--(10)----------12----|
|-----12---------12---------11-|----------11s12s11-------|
|------------------------------|-------------------------|
|------------------------------|-------------------------|
|------------------------------|-------------------------|


  C/G                             (Em/G)
    W                              Q.          Q.          Q
|-^-0---------------------------|-12--------------------------|
|-^-5---------------------------|-------------12--------------|
|-^-5---------------------------|-------------------------12--|
|-^-5---------------------------|-----------------------------|
|-------------------------------|-----------------------------|
|-------------------------------|-----------------------------|
|
|  +E   E  E  +E   E  E  +E   E    E   +E   E  E   +E   E  Q
|-------------------------------|-----------------------------|
|-(12)----10-(10)-10-10-(10)----|-10--(10)-10-10--(10)----10--|
|------12---------12---------11-|----------11----------11-----|
|-------------------------------|-----------------------------|
|-------------------------------|-----------------------------|
|-------------------------------|-----------------------------|


   +W                              +W
|-------------------------------|--------------------------|
|-------------------------------|--------------------------|
|-(12)--------------------------|-(12)---------------------|
|-------------------------------|--------------------------|
|-------------------------------|--------------------------|
|-------------------------------|--------------------------|
|
|   E   E  E  +E   E  E  +E   E     E   +E   E  E  E  Q.
|-------------------------------|--------------------------|
|--10-----10-(10)-10-10-(10)----|--10--(10)----------12----|
|------12---------12---------11-|-----------11s12s11-------|
|-------------------------------|--------------------------|
|-------------------------------|--------------------------|
|-------------------------------|--------------------------|


  Em/G
                                   <
    W                              W
|---0---------------------------|-(0)------------------------|
|---5---------------------------|-(5)------------------------|
|---4---------------------------|-(4)------------------------|
|---5---------------------------|-[5]------------------------|
|-------------------------------|----------------------------|
|-------------------------------|----------------------------|
|
|  +E   E  E  +E   E  E  +E   E    E   +E   E  E  +E   E  Q
|-------------------------------|----------------------------|
|-(12)----10-(10)-10-10-(10)----|-10--(10)-10-10-(10)----10--|
|------12---------12---------11-|----------11---------11-----|
|-------------------------------|----------------------------|
|-------------------------------|----------------------------|
|-------------------------------|----------------------------|


                    Eb
                                  <
  +W                              W
|-(0)--------------------------|-[0]---------------------|
|-(5)--------------------------|-(5)---------------------|
|-(4)--------------------------|-(4)---------------------|
|-(5)--------------------------|-(5)---------------------|
|------------------------------|-------------------------|
|------------------------------|-------------------------|
|
|  E   E  E  +E   E  E  +E   E    E   +E   E  E  E  Q.
|------------------------------|-------------------------|
|-10-----10-(10)-10-10-(10)----|-10--(10)----------12----|
|-----12---------12---------11-|----------11s12s11-------|
|------------------------------|-------------------------|
|------------------------------|-------------------------|
|------------------------------|-------------------------|


  C/G                             (Em/G)
    W                              Q.          Q.          +Q
|-^-0---------------------------|-12----------------------------|
|-^-5---------------------------|-------------12----------(12)--|
|-^-5---------------------------|-------------------------------|
|-^-5---------------------------|-------------------------------|
|-------------------------------|-------------------------------|
|-------------------------------|-------------------------------|
|
|  +E   E  E  +E   E  E  +E   E    E   +E   E  E   +E   E   Q
|-------------------------------|-------------------------------|
|-(12)----10-(10)-10-10-(10)----|-10--(10)-10-10--(10)-----10---|
|------12---------12---------11-|----------11----------11-------|
|-------------------------------|-------------------------------|
|-------------------------------|-------------------------------|
|-------------------------------|-------------------------------|


   W                              W
|-----------------------------|--------------------------|
|-----------------------------|--------------------------|
|-12--------------------------|-[12]---------------------|
|-----------------------------|--------------------------|
|-----------------------------|--------------------------|
|-----------------------------|--------------------------|
|
|                                                   >
|  E  E  E  +E   E  E  +E   E     E   +E   E  E  E  Q.
|-----------------------------|--------------------------|
|-10----10-(10)-10-10-(10)----|--10--(10)----------12----|
|----12---------12---------11-|-----------11s12s11-------|
|-----------------------------|--------------------------|
|-----------------------------|--------------------------|
|-----------------------------|--------------------------|


 Verse
  Em
                            Gtr III
    W            +W             W           +W
|-------------|-------------|-^-0--------|--(0)----|
|-------------|-------------|-^-0--------|--(0)----|
|-------------|-------------|-^-9--------|--(9)----|
|---5---------|--(5)--------|-^-5--------|--(5)----|
|---7---------|--(7)--------|-^-7--------|--(7)----|
|-------------|-------------|------------|---------|
|
|                           Gtr IV
|  +W            +W             W           +W
|-------------|-------------|-^-0--------|--(0)----|
|-(12)--------|-(12)--------|-^-0--------|--(0)----|
|-------------|-------------|-^11--------|-(11)----|
|-------------|-------------|-^-9--------|--(9)----|
|-------------|-------------|-^-7--------|--(7)----|
|-------------|-------------|------------|---------|


  Bmadd11/D
    W           +W             W                +W
|-^-0--------|--(0)--------|-^-0-------------|--(0)--------|
|-^-0--------|--(0)--------|-^-0-------------|--(0)--------|
|-^-7--------|--(7)--------|-^-7-------------|--(7)--------|
|-^-4--------|--(4)--------|-^-4-------------|--(4)--------|
|-^-5--------|--(5)--------|-^-5-------------|--(5)--------|
|------------|-------------|-----------------|-------------|
|
|   W           +W             Q.   Q.    Q     +Q   H.
|-^-0--------|--(0)--------|-^-0-------------|-------------|
|-^-0--------|--(0)--------|-^-0----8--------|-------------|
|-^14--------|-(14)--------|-^11---------11--|-(11)--------|
|-^12--------|-(12)--------|-^-7-------------|-------7-----|
|------------|-------------|-----------------|-------------|
|------------|-------------|-----------------|-------------|


  Em
    W           +W             W           +W
|-^-0--------|--(0)--------|-^-0--------|--(0)----|
|-^-0--------|--(0)--------|-^-0--------|--(0)----|
|-^-9--------|--(9)--------|-^-9--------|--(9)----|
|-^-5--------|--(5)--------|-^-5--------|--(5)----|
|-^-7--------|--(7)--------|-^-7--------|--(7)----|
|------------|-------------|------------|---------|
|
|   W           +W             W           +W
|-^-0--------|--(0)--------|-^-0--------|--(0)----|
|-^-0--------|--(0)--------|-^-0--------|--(0)----|
|-^11--------|-(11)--------|-^11--------|-(11)----|
|-^-9--------|--(9)--------|-^-9--------|--(9)----|
|-^-7--------|--(7)--------|-^-7--------|--(7)----|
|------------|-------------|------------|---------|


  Bmadd11/D
    W           +W             W           +W
|-^-0--------|--(0)--------|-^-0--------|--(0)----|
|-^-0--------|--(0)--------|-^-0--------|--(0)----|
|-^-7--------|--(7)--------|-^-7--------|--(7)----|
|-^-4--------|--(4)--------|-^-4--------|--(4)----|
|-^-5--------|--(5)--------|-^-5--------|--(5)----|
|------------|-------------|------------|---------|
|
|   W           +W             W           +W
|-^-0--------|--(0)--------|-^-0--------|--(0)----|
|-^-0--------|--(0)--------|-^-0--------|--(0)----|
|-^14--------|-(14)--------|-^11--------|-(11)----|
|-^12--------|-(12)--------|-^-7--------|--(7)----|
|------------|-------------|------------|---------|
|------------|-------------|------------|---------|


 Bridge
  Em/G
  Gtr I
  >
  W                            +W
|-0--------------------------|-(0)------------------------|
|-5--------------------------|-(5)------------------------|
|-4--------------------------|-(4)------------------------|
|-5--------------------------|-(5)------------------------|
|----------------------------|----------------------------|
|----------------------------|----------------------------|
| W
|
| Gtr II
| E  E  E  +E   E  E  +E   E    E   +E   E  E  +E   E  Q
|----------------------------|----------------------------|
|------10-(10)-10-10-(10)----|-10--(10)-10-10-(10)----10--|
|---12---------12---------11-|----------11---------11-----|
|----------------------------|----------------------------|
|----------------------------|----------------------------|
|----------------------------|----------------------------|


   <
   W                             +W
|-[0]--------------------------|-(0)---------------------|
|-(5)--------------------------|-(5)---------------------|
|-(4)--------------------------|-(4)---------------------|
|-(5)--------------------------|-(5)---------------------|
|------------------------------|-------------------------|
|------------------------------|-------------------------|
|
|  E   E  E  +E   E  E  +E   E    E   +E   E  E  E  Q.
|------------------------------|-------------------------|
|-10-----10-(10)-10-10-(10)----|-10--(10)----------12----|
|-----12---------12---------11-|----------11s12s11-------|
|------------------------------|-------------------------|
|------------------------------|-------------------------|
|------------------------------|-------------------------|


  C/G
    W                             +W
|---0---------------------------|-(0)------------------------|
|---5---------------------------|-(5)------------------------|
|---5---------------------------|-(5)------------------------|
|---5---------------------------|-(5)------------------------|
|-------------------------------|----------------------------|
|-------------------------------|----------------------------|
|   W
|
|  +E   E  E  +E   E  E  +E   E    E   +E   E  E  +E   E  Q
|-------------------------------|----------------------------|
|-(12)----10-(10)-10-10-(10)----|-10--(10)-10-10-(10)----10--|
|------12---------12---------11-|----------11---------11-----|
|-------------------------------|----------------------------|
|-------------------------------|----------------------------|
|-------------------------------|----------------------------|


  +W                             +W
|-(0)--------------------------|-------------------------|
|-(5)--------------------------|-(5)---------------------|
|-(5)--------------------------|-(5)---------------------|
|-(5)--------------------------|-(5)---------------------|
|------------------------------|-------------------------|
|------------------------------|-------------------------|
|
|  E   E  E  +E   E  E  +E   E    E   +E   E  E  E  Q.
|------------------------------|-------------------------|
|-10-----10-(10)-10-10-(10)----|-10--(10)----------12----|
|-----12---------12---------11-|----------11s12s11-------|
|------------------------------|-------------------------|
|------------------------------|-------------------------|
|------------------------------|-------------------------|


  Em/G
    W                             +W
|---0---------------------------|-(0)------------------------|
|---5---------------------------|-(5)------------------------|
|---4---------------------------|-(4)------------------------|
|---5---------------------------|-(5)------------------------|
|-------------------------------|----------------------------|
|-------------------------------|----------------------------|
|   W
|
|  +E   E  E  +E   E  E  +E   E    E   +E   E  E  +E   E  Q
|-------------------------------|----------------------------|
|-(12)----10-(10)-10-10-(10)----|-10--(10)-10-10-(10)----10--|
|------12---------12---------11-|----------11---------11-----|
|-------------------------------|----------------------------|
|-------------------------------|----------------------------|
|-------------------------------|----------------------------|


  +W                             +W
|-(0)--------------------------|-------------------------|
|-(5)--------------------------|-(5)---------------------|
|-(4)--------------------------|-(4)---------------------|
|-(5)--------------------------|-(5)---------------------|
|------------------------------|-------------------------|
|------------------------------|-------------------------|
|
|  E   E  E  +E   E  E  +E   E    E   +E   E  E  E  Q.
|------------------------------|-------------------------|
|-10-----10-(10)-10-10-(10)----|-10--(10)----------12----|
|-----12---------12---------11-|----------11s12s11-------|
|------------------------------|-------------------------|
|------------------------------|-------------------------|
|------------------------------|-------------------------|


  C/G                             (Em/G)
    W                              Q.          Q.          Q
|-^-0---------------------------|-12--------------------------|
|-^-5---------------------------|-------------12--------------|
|-^-5---------------------------|-------------------------12--|
|-^-5---------------------------|-----------------------------|
|-------------------------------|-----------------------------|
|-------------------------------|-----------------------------|
|
|  +E   E  E  +E   E  E  +E   E    E   +E   E  E   +E   E  Q
|-------------------------------|-----------------------------|
|-(12)----10-(10)-10-10-(10)----|-10--(10)-10-10--(10)----10--|
|------12---------12---------11-|----------11----------11-----|
|-------------------------------|-----------------------------|
|-------------------------------|-----------------------------|
|-------------------------------|-----------------------------|


   W                                +H              +Q       +Q
|--------------------------------|--------------------------------|
|--------------------------------|--------------------------------|
|-12b13--------------------------|-(12)------------(12)-----(12)--|
|--------------------------------|--------------------------------|
|--------------------------------|--------------------------------|
|--------------------------------|--------------------------------|
|
|  E     E  E  +E   E  E  +E   E     E   +E   E  E   E   Q.
|--------------------------------|--------------------------------|
|-10-------10-(10)-10-10-(10)----|--10--(10)------------12--------|
|-------12---------12---------11-|-----------11s12s=11------------|
|--------------------------------|--------------------------------|
|--------------------------------|--------------------------------|
|--------------------------------|--------------------------------|


 Pre-Chorus
  Q=162
  Em
 3/4
  E  E    E  E     E   E      E  E    E  E     E   E
|---------------------------|---------------------------|
|---------------------------|---------------------------|
|---------------------------|---------------------------|
|-5-------5--------5--------|-5-------5--------5--------|
|-7p=0----7p=0-----7p==0----|-7p=0----7p=0-----7p==0----|
|---------------------------|---------------------------|
|
| E +E    E +E    +E  +E      E +E    E +E    +E  +E
|---------------------------|---------------------------|
|---------------------------|---------------------------|
|---------------------------|---------------------------|
|-4-(4)b5r4-(4)b5r(4)-(4)b5-|-4-(4)b5r4-(4)b5r(4)-(4)b5-|
|---------------------------|---------------------------|
|---------------------------|---------------------------|


  E  E    E  E     E   E      E  E    E  E     E   E
|---------------------------|---------------------------|
|---------------------------|---------------------------|
|---------------------------|---------------------------|
|-5-------5--------5--------|-5-------5--------5--------|
|-7p=0----7p=0-----7p==0----|-7p=0----7p=0-----7p==0----|
|---------------------------|---------------------------|
|
| E +E    E +E    +E  +E      E +E    E +E    +E  +E
|---------------------------|---------------------------|
|---------------------------|---------------------------|
|---------------------------|---------------------------|
|-4-(4)b5r4-(4)b5r(4)-(4)b5-|-4-(4)b5r4-(4)b5r(4)-(4)b5-|
|---------------------------|---------------------------|
|---------------------------|---------------------------|


  E  E    E  E     E   E      E  E    E  E     E   E
|---------------------------|---------------------------|
|---------------------------|---------------------------|
|---------------------------|---------------------------|
|-5-------5--------5--------|-5-------5--------5--------|
|-7p=0----7p=0-----7p==0----|-7p=0----7p=0-----7p==0----|
|---------------------------|---------------------------|
|
| E +E    E +E    +E  +E      E +E    E +E    +E  +E
|---------------------------|---------------------------|
|---------------------------|---------------------------|
|---------------------------|---------------------------|
|-4-(4)b5r4-(4)b5r(4)-(4)b5-|-4-(4)b5r4-(4)b5r(4)-(4)b5-|
|---------------------------|---------------------------|
|---------------------------|---------------------------|


  E  E    E  E     E   E      E  E    E  E     E   E
|---------------------------|---------------------------|
|---------------------------|---------------------------|
|---------------------------|---------------------------|
|-5-------5--------5--------|-5-------5--------5--------|
|-7p=0----7p=0-----7p==0----|-7p=0----7p=0-----7p==0----|
|---------------------------|---------------------------|
|
| E +E    E +E    +E  +E      E +E    E +E    +E  +E
|---------------------------|---------------------------|
|---------------------------|---------------------------|
|---------------------------|---------------------------|
|-4-(4)b5r4-(4)b5r(4)-(4)b5-|-4-(4)b5r4-(4)b5r(4)-(4)b5-|
|---------------------------|---------------------------|
|---------------------------|---------------------------|


 Chorus
  G                                   Em             G
   E E  E E   E E    E E  E E   E E   E E E E  E E     E E  E E   E E
|-----------------|-----------------|--------------|------------------|
|-----------------|-----------------|--------------|------------------|
|-----------------|-----------------|--------------|------------------|
|-----------------|-----------------|-5---5----5---|------------------|
|-14p0-14p0--14p0-|-14p0-14p0--14p0-|-7p0-7p0--7p0-|-/14p0-14p0--14p0-|
|-15---15----15---|-15---15----15---|--------------|-/15---15----15---|
|
| Gtr IV
|  E Q    Q.         E Q    Q.        E Q   Q.         E Q    Q.
|---------2-------|---------2-------|-------2------|----------2-------|
|----0------------|----0------------|---0----------|-----0------------|
|--2--------------|--2--------------|-2------------|---2--------------|
|-----------------|-----------------|--------------|------------------|
|-----------------|-----------------|--------------|------------------|
|-----------------|-----------------|--------------|------------------|


  Bm                                        Am
   E  E  E  E   E  E    E  E  E  E   E  E    E  E  E  E   Q     E  Q   Q.
|--------------------|--------------------|------------------|--------------|
|--------------------|--------------------|------------------|--------12\---|
|--------------------|--------------------|------------------|----12--------|
|-12----12-----12----|-12----12-----12----|-10----10-----10--|-/9-----------|
|-14p12-14p12--14p12-|-14p12-14p12--14p12-|-12p10-12p10--12--|--------------|
|--------------------|--------------------|------------------|--------------|
|
|  E  Q     Q.          E  Q     Q.          E  Q     Q.        E  Q   Q.
|-----------7--------|-----------7--------|-----------5------|---------5----|
|-----8--------------|-----8--------------|-----3------------|-----3--------|
|--9-----------------|--9-----------------|--5---------------|--5-----------|
|--------------------|--------------------|------------------|--------------|
|--------------------|--------------------|------------------|--------------|
|--------------------|--------------------|------------------|--------------|


  (G)            N.C.
   E Q   E  Q     E     +E   +E      +E   +E      +E
|--------------|--------------------------------------|
|--------------|--------------------------------------|
|-------12-----|-11b12r(11)-(11)b12r(11)-(11)b12r(11)-|
|----9------9--|--------------------------------------|
|-10-----------|--------------------------------------|
|--------------|--------------------------------------|
|
|  E Q   Q.       E      Q            Q.
|--------2-----|----------------------2---------------|
|----0---------|---------0----------------------------|
|--2-----------|--2-----------------------------------|
|--------------|--------------------------------------|
|--------------|--------------------------------------|
|--------------|--------------------------------------|


  (G)            N.C.
   E Q   E  Q     E     +E   +E      +E  E  E
|--------------|------------------------------|
|--------------|------------------------------|
|-------12-----|-11b12r(11)-(11)b12r(11)-9-11-|
|----9------9--|------------------------------|
|-10-----------|------------------------------|
|--------------|------------------------------|
|
|  E Q   Q.       E      Q            Q.
|--------2-----|----------------------2-------|
|----0---------|---------0--------------------|
|--2-----------|--2---------------------------|
|--------------|------------------------------|
|--------------|------------------------------|
|--------------|------------------------------|


  (G/E)                     (B5/A)            (G/E)
  Q.    Q.     Q.    Q.      E  Q     E  Q     E  Q     E  Q
|------------|------------|-----------2-----|-----------7------|
|------------|------------|-----0--------0--|-----8--------8\--|
|------------|-4----------|--2--------------|--9---------------|
|-------5----|-------5----|-----------------|------------------|
|-7----------|------------|-----------------|------------------|
|------------|------------|-----------------|------------------|
|
| E  Q  Q.     E  Q  Q.      E  E  E  Q.       E  E  E  Q.
|-------7----|-------7----|----------12-----|----------12------|
|----8-------|----8-------|----10-----------|----10------------|
|-9----------|-9----------|-12----12--------|-12----12---------|
|------------|------------|-----------------|------------------|
|------------|------------|-----------------|------------------|
|------------|------------|-----------------|------------------|


  (G5/E)                                N.C.
  Q   E   Q    E     Q    E   Q    E    Q   E   Q    E     Q    E   Q    E
|-----------------|-------------------|-----------------|-------------------|
|-----------------|-------------------|-----------------|-------------------|
|-----------------|-------------------|-----------------|-------------------|
|-----------------|-12--(12)----------|--------12--(12)-|-10--(10)----------|
|--------10--(10)-|------10--(7)--10--|-----------------|------10--(7)--10--|
|-0--(0)----------|-------------------|-0--(0)----------|-------------------|
|
| Q   E   Q    E     Q    E   Q    E    Q   E   Q    E     Q    E   Q    E
|-7--(7)----------|-------------------|-7--(7)----------|-------------------|
|---------5---(5)-|-----------5---(5)-|---------5---(5)-|-----------5---(5)-|
|-----------------|--7---(7)----------|-----------------|--7---(7)----------|
|-----------------|-------------------|-----------------|-------------------|
|-----------------|-------------------|-----------------|-------------------|
|-----------------|-------------------|-----------------|-------------------|


  D
   Q    E   E Q         E Q       E Q
|--------------------|----------------------|
|--------------------|----------------------|
|-----------7--------|--5---------4---------|
|--4---(4)----4------|----4---------4\------|
|--5---(5)-----------|----------------------|
|--------------------|----------------------|
|
|  Q    E   Q     E     Q     E   Q      E
|-12--(12)-----------|-10---(10)------------|
|--------------------|----------------------|
|----------12---(12)-|-----------12----(12)-|
|--------------------|----------------------|
|--------------------|----------------------|
|--------------------|----------------------|


  (E5/C)
   E Q       Q   +E      +Q     Q     Q
|----------------------|----------------------|
|----------------------|----------------------|
|------------4---(4)b5r|=(4)----------4\------|
|----2-----------------|--------2-------------|
|--3-------------------|----------------------|
|----------------------|----------------------|
|
|  Q     E   Q    E       Q     E   Q      E
|-12---(12)------------|-10---(10)------------|
|----------------------|----------------------|
|-----------12--(12)---|-----------12----(12)-|
|----------------------|----------------------|
|----------------------|----------------------|
|----------------------|----------------------|


  (G)             (B5)
   E Q    E  Q     E Q    E  Q     E Q    E  Q     E Q    E  Q
|---------------|---------------|---------------|---------------|
|---------------|---------------|---------------|---------------|
|--------12-----|-11-----11-----|-11-----11-----|-11-----11-----|
|----9-------9--|----9-------9--|----9-------9--|----9-------9--|
|-10------------|---------------|---------------|---------------|
|---------------|---------------|---------------|---------------|
|
|  E E E  Q.       E E E  Q.       E E E  Q.       E E E  Q.
|---------2-----|---------2-----|---------2-----|---------2-----|
|----0----------|----0----------|----0----------|----0----------|
|--2---2--------|--2---2--------|--2---2--------|--2---2--------|
|---------------|---------------|---------------|---------------|
|---------------|---------------|---------------|---------------|
|---------------|---------------|---------------|---------------|


  (G/B)                               (C5/A)            N.C.
    E  Q   E   Q     E  E  E E   Q      E  E  E  Q.      E  E  E  Q.
|-----------------|-----------------|-----------------|-----------7\---|
|-----------------|-----------------|-----------------|----------------|
|----------0------|----------0------|------------0----|-----7----------|
|-----12------12--|----12-------12--|-----10----------|--9-----9-------|
|-/14-------------|-14----14--------|-/12----12-------|----------------|
|-----------------|-----------------|-----------------|----------------|
|
|   E  E E Q.        E  E  E Q.         E  E  E  Q.      E  E  E  Q.
|----------7------|----------7------|-----------12----|----------12\---|
|------8----------|-----8-----------|-----10----------|----10----------|
|---9----9--------|--9-----9--------|--12----12-------|-12----12-------|
|-----------------|-----------------|-----------------|----------------|
|-----------------|-----------------|-----------------|----------------|
|-----------------|-----------------|-----------------|----------------|


   Interlude
    N.C.     G  N.C.             G  N.C.
    Gtr I
     PM---|      PM-----------|      PM----
     E  E  E  E  E  E    E  E  E  E  E  E
||--------------------|-------------------|
||o-------------------|-------------------|
||--------------------|-------------------|
||------------9-------|-----------9-------|
||o----------10-------|----------10-------|
||---0--0--0-----0--0-|--0--0--0-----0--0-|
|
|   Gtr II
|    PM---|      PM-----------|      PM----
|    E  E  E  E  E  E    E  E  E  E  E  E
||--------------------|-------------------|
||o-------------------|-------------------|
||-----------11-------|----------11-------|
||------------9-------|-----------9-------|
||o-10-10-10----10-10-|-10-10-10----10-10-|
||--------------------|-------------------|


              G5 N.C.          G  N.C.
 ----------|      PM--------|      PM|
   E  E  E  E  E  E    E  E  E  E  E  E
|-------------------|--------------------|
|-------------------|--------------------|
|-------------------|--------------------|
|-------------12----|-----------9--------|
|-------------10----|----------10--------|
|--0--0--0--0-----0-|--0--0--0-----0--0--|
|
|----------|      PM--------|      PM|
|  E  E  E  E  E  E    E  E  E  E  E  E
|-------------------|--------------------|
|-------------------|--------------------|
|-------------11----|----------11--------|
|--------------9----|-----------9--------|
|-10-10-10-10----10-|-10-10-10----10-10--|
|-------------------|--------------------|


        C  N.C.        C  N.C.          C  N.C.      C
  PM--|    PM--------|    PM----------|    PM------|
  E E E  E E E   E E E  E E E   E E E E  E E   E E E  E        +E   +E
|--------------|--------------|--------------|----------------------------||
|--------------|--------------|----------8---|---------------------------o||
|--------9-----|--------9-----|----------9---|-------11b11.5==(11)-(11)r--||
|-------10-----|-------10-----|---------10---|-------10b10.5==(10)-(10)r--||
|-0-0-0----0-0-|-0-0-0----0-0-|-0-0-0-0----0-|-0-0-0---------------------o||
|--------------|--------------|--------------|----------------------------||
|
| PM--|    PM--------|    PM----------|    PM------|
| E E E  E E E   E E E  E E E   E E E E  E E   E E E  E        +E   +E
|--------------|--------------|--------------|----------------------------||
|--------------|--------------|--------------|---------------------------o||
|--------------|--------------|--------------|----------------------------||
|-------12-----|-------12-----|---------12---|----------------------------||
|-------10-----|-------10-----|---------10---|--------9b9.5====(9)--(9)r-o||
|-8-8-8----8-8-|-8-8-8----8-8-|-8-8-8-8----8-|-8-8-8----------------------||


           G  N.C.              G   N.C.
  Gtr III
   H           Q       Q.        Q.
|-------------------|---------------------|
|-------------------|---------------------|
|--2-----------2s===|=16------------------|
|-------------------|-----------14--------|
|-------------------|---------------------|
|-------------------|---------------------|
|
| Gtr I
|  PM---|      PM------------|       PM----
|  E  E  E  E  E  E    E   E  E  E   E  E
|-------------------|---------------------|
|-------------------|---------------------|
|-------------------|---------------------|
|-----------9-------|------------9--------|
|----------10-------|-----------10--------|
|--0--0--0-----0--0-|--0---0--0------0--0-|
|
| Gtr II
|  PM---|      PM------------|       PM----
|  E  E  E  E  E  E    E   E  E  E   E  E
|-------------------|---------------------|
|-------------------|---------------------|
|----------11-------|-----------11--------|
|-----------9-------|------------9--------|
|-10-10-10----10-10-|-10--10-10-----10-10-|
|-------------------|---------------------|


               G5 N.C.           G   N.C.
   H.                   Q.        Q.
|--------------------|---------------------|
|--------------------|-17------------------|
|--------------------|---------------------|
|-12-----------------|-----------12\-------|
|--------------------|---------------------|
|--------------------|---------------------|
|
|-----------|      PM---------|       PM|
|  E   E  E  E  E  E    E   E  E  E   E  E
|--------------------|---------------------|
|--------------------|---------------------|
|--------------------|---------------------|
|--------------12----|------------9--------|
|--------------10----|-----------10--------|
|--0---0--0--0-----0-|--0---0--0------0--0-|
|
|-----------|      PM---------|       PM|
|  E   E  E  E  E  E    E   E  E  E   E  E
|--------------------|---------------------|
|--------------------|---------------------|
|--------------11----|-----------11--------|
|---------------9----|------------9--------|
|-10--10-10-10----10-|-10--10-10-----10-10-|
|--------------------|---------------------|


        C  N.C.            C  N.C.
  E H        +E    +H.
|----------------|----------------|
|----------------|----------------|
|----------------|----------------|
|-7h9--------(9)-|-(9)------------|
|----------------|----------------|
|----------------|----------------|
|
| PM--|    PM------------|    PM---
| E E E  E E  E     E  E E  E E E
|----------------|----------------|
|----------------|----------------|
|--------9-------|----------9-----|
|-------10-------|---------10-----|
|-0-0-0----0--0--|--0--0-0----0-0-|
|----------------|----------------|
|
| PM--|    PM------------|    PM---
| E E E  E E  E     E  E E  E E E
|----------------|----------------|
|----------------|----------------|
|----------------|----------------|
|-------12-------|---------12-----|
|-------10-------|---------10-----|
|-8-8-8----8--8--|--8--8-8----8-8-|


            C  N.C.        C
  +H.              +H.
|----------------|-----------------------------|
|----------------|-----------------------------|
|----------------|-----------------------------|
|-(9)------------|-(9)-------------------------|
|----------------|-----------------------------|
|----------------|-----------------------------|
|
|---------|    PM--------|
|  E  E E E  E E    E  E E  E        +E   +E
|----------------|-----------------------------|
|------------8---|-----------------------------|
|------------9---|---------11b11.5==(11)-(11)r-|
|-----------10---|---------10b10.5==(10)-(10)r-|
|--0--0-0-0----0-|--0--0-0---------------------|
|----------------|-----------------------------|
|
|---------|    PM--------|
|  E  E E E  E E    E  E E  E        +E   +E
|----------------|-----------------------------|
|----------------|-----------------------------|
|----------------|-----------------------------|
|-----------12---|-----------------------------|
|-----------10---|----------9b9.5====(9)--(9)r-|
|--8--8-8-8----8-|--8--8-8---------------------|


           G  N.C.              G   N.C.
   H           Q       Q.        Q.
|-------------------|---------------------|
|-------------------|---------------------|
|--2-----------2s===|=16------------------|
|-------------------|-----------14--------|
|-------------------|---------------------|
|-------------------|---------------------|
|
|  PM---|      PM------------|       PM----
|  E  E  E  E  E  E    E   E  E  E   E  E
|-------------------|---------------------|
|-------------------|---------------------|
|-------------------|---------------------|
|-----------9-------|------------9--------|
|----------10-------|-----------10--------|
|--0--0--0-----0--0-|--0---0--0------0--0-|
|
|  PM---|      PM------------|       PM----
|  E  E  E  E  E  E    E   E  E  E   E  E
|-------------------|---------------------|
|-------------------|---------------------|
|----------11-------|-----------11--------|
|-----------9-------|------------9--------|
|-10-10-10----10-10-|-10--10-10-----10-10-|
|-------------------|---------------------|


               G5 N.C.           G   N.C.
   H.                   Q.        Q.
|--------------------|---------------------|
|--------------------|-17------------------|
|--------------------|---------------------|
|-12-----------------|-----------12\-------|
|--------------------|---------------------|
|--------------------|---------------------|
|
|-----------|      PM---------|       PM|
|  E   E  E  E  E  E    E   E  E  E   E  E
|--------------------|---------------------|
|--------------------|---------------------|
|--------------------|---------------------|
|--------------12----|------------9--------|
|--------------10----|-----------10--------|
|--0---0--0--0-----0-|--0---0--0------0--0-|
|
|-----------|      PM---------|       PM|
|  E   E  E  E  E  E    E   E  E  E   E  E
|--------------------|---------------------|
|--------------------|---------------------|
|--------------11----|-----------11--------|
|---------------9----|------------9--------|
|-10--10-10-10----10-|-10--10-10-----10-10-|
|--------------------|---------------------|


         C  N.C.          C  N.C.           C  N.C.        C
  H.              +H         Q     H.              +H.
|---------------|----------------|---------------|-----------------------------|
|---------------|----------------|---------------|-----------------------------|
|---------------|----------------|---------------|-----------------------------|
|-5-------------|-(5)--------5s==|=7-------------|-(7)-------------------------|
|---------------|----------------|---------------|-----------------------------|
|---------------|----------------|---------------|-----------------------------|
|
| PM---|    PM----------|    PM-----------|    PM--------|
| E  E E  E E E    E  E E  E E E   E  E E E  E E    E  E E  E        +E   +E
|---------------|----------------|---------------|-----------------------------|
|---------------|----------------|-----------8---|-----------------------------|
|---------9-----|----------9-----|-----------9---|---------11b11.5==(11)-(11)r-|
|--------10-----|---------10-----|----------10---|---------10b10.5==(10)-(10)r-|
|-0--0-0----0-0-|--0--0-0----0-0-|-0--0-0-0----0-|--0--0-0---------------------|
|---------------|----------------|---------------|-----------------------------|
|
| PM---|    PM----------|    PM-----------|    PM--------|
| E  E E  E E E    E  E E  E E E   E  E E E  E E    E  E E  E        +E   +E
|---------------|----------------|---------------|-----------------------------|
|---------------|----------------|---------------|-----------------------------|
|---------------|----------------|---------------|-----------------------------|
|--------12-----|---------12-----|----------12---|-----------------------------|
|--------10-----|---------10-----|----------10---|----------9b9.5====(9)--(9)r-|
|-8--8-8----8-8-|--8--8-8----8-8-|-8--8-8-8----8-|--8--8-8---------------------|


   Pre-Chorus
    Em
    Gtr I
    E  E    E  E     E   E      E  E    E  E     E   E
||----------------------------|---------------------------|
||o---------------------------|---------------------------|
||----------------------------|---------------------------|
||--5-------5--------5--------|-5-------5--------5--------|
||o-7p=0----7p=0-----7p==0----|-7p=0----7p=0-----7p==0----|
||----------------------------|---------------------------|
|
|   Gtr II
|   E +E    E +E    +E  +E      E +E    E +E    +E  +E
||----------------------------|---------------------------|
||o---------------------------|---------------------------|
||----------------------------|---------------------------|
||--4-(4)b5r4-(4)b5r(4)-(4)b5-|-4-(4)b5r4-(4)b5r(4)-(4)b5-|
||o---------------------------|---------------------------|
||----------------------------|---------------------------|


  E  E    E  E     E   E      E  E    E  E     E   E
|---------------------------|-----------------------------||
|---------------------------|----------------------------o||
|---------------------------|-----------------------------||
|-5-------5--------5--------|-5-------5--------5----------||
|-7p=0----7p=0-----7p==0----|-7p=0----7p=0-----7p==0-----o||
|---------------------------|-----------------------------||
|
| E +E    E +E    +E  +E      E +E    E +E    +E  +E
|---------------------------|-----------------------------||
|---------------------------|----------------------------o||
|---------------------------|-----------------------------||
|-4-(4)b5r4-(4)b5r(4)-(4)b5-|-4-(4)b5r4-(4)b5r(4)-(4)b5---||
|---------------------------|----------------------------o||
|---------------------------|-----------------------------||


 Chorus
  G                                   Em             G
  Gtr I
   E E  E E   E E    E E  E E   E E   E E E E  E E     E E  E E   E E
|-----------------|-----------------|--------------|------------------|
|-----------------|-----------------|--------------|------------------|
|-----------------|-----------------|--------------|------------------|
|--9p7--9p7---9p7-|--9p7--9p7---9p7-|-5---5----5---|--/9p7--9p7---9p7-|
|-10---10----10---|-10---10----10---|-7p0-7p0--7p0-|-/10---10----10---|
|-----------------|-----------------|--------------|------------------|
|
| Gtr IV
|  E Q    Q.         E Q    Q.        E Q   Q.         E Q    Q.
|---------2-------|---------2-------|-------2------|----------2-------|
|----0------------|----0------------|---0----------|-----0------------|
|--2--------------|--2--------------|-2------------|---2--------------|
|-----------------|-----------------|--------------|------------------|
|-----------------|-----------------|--------------|------------------|
|-----------------|-----------------|--------------|------------------|


  Bm                                        Am
   E  E  E  E   E  E    E  E  E  E   E  E    E  E  E  E   Q     E  Q   Q.
|--------------------|--------------------|------------------|--------------|
|--------------------|--------------------|------------------|--------12\---|
|--------------------|--------------------|------------------|----12--------|
|-12----12-----12----|-12----12-----12----|-10----10-----10--|-/9-----------|
|-14p12-14p12--14p12-|-14p12-14p12--14p12-|-12p10-12p10--12--|--------------|
|--------------------|--------------------|------------------|--------------|
|
|  E  Q     Q.          E  Q     Q.          E  Q     Q.        E  Q   Q.
|-----------7--------|-----------7--------|-----------5------|---------5----|
|-----8--------------|-----8--------------|-----3------------|-----3--------|
|--9-----------------|--9-----------------|--5---------------|--5-----------|
|--------------------|--------------------|------------------|--------------|
|--------------------|--------------------|------------------|--------------|
|--------------------|--------------------|------------------|--------------|


  (G)            (B5/A)
   E Q   E  Q     Q.     Q.      Q.     Q.      Q.     Q.
|--------------|--------------|--------------|--------------|
|--------------|--------------|--------------|--------------|
|-------12-----|-11-----11----|-11-----11----|-12-----11----|
|----9------9--|--------------|--------------|--------------|
|-10-----------|--------------|--------------|--------------|
|--------------|--------------|--------------|--------------|
|
|  E Q   Q.       E  Q   Q.      E  Q   Q.      E  Q   Q.
|--------2-----|---------2----|---------2----|---------2----|
|----0---------|-----0--------|-----0--------|-----0--------|
|--2-----------|--2-----------|--2-----------|--2-----------|
|--------------|--------------|--------------|--------------|
|--------------|--------------|--------------|--------------|
|--------------|--------------|--------------|--------------|


  (G/E)                        (A5/G)
    E  Q  Q.      E  Q  Q.       E  Q     Q.      E  Q     E  Q
|--------------|-------------|-----------------|-----------7------|
|--------------|-------------|-----------------|------------------|
|---------0----|--------0----|------------0----|-----7--------7\--|
|-----12-------|----12-------|-----10----------|--9---------------|
|-/14----------|-14----------|-/12-------------|------------------|
|--------------|-------------|-----------------|------------------|
|
|   E  Q  Q.      E  Q  Q.       E  E  E  Q.      E  E  E  Q.
|---------7----|--------7----|-----------12----|----------12------|
|------8-------|-----8-------|-----10----------|----10------------|
|---9----------|--9----------|--12----12-------|-12----12---------|
|--------------|-------------|-----------------|------------------|
|--------------|-------------|-----------------|------------------|
|--------------|-------------|-----------------|------------------|


  (E5/D)
  Q   E   Q    E     E  E  E   E  E  E
|-----------------|---------------------|
|-----------------|---------------------|
|-----------------|---------------------|
|-----------------|-12--------12--------|
|--------10--(10)-|----10--------10-----|
|-0--(0)----------|--------0---------0--|
|
| Q   E   Q    E     Q     E   Q     E
|-7--(7)----------|---------------------|
|---------5---(5)-|------------5----(5)-|
|-----------------|--7----(7)-----------|
|-----------------|---------------------|
|-----------------|---------------------|
|-----------------|---------------------|


   E  E  E   E  E  E     E  E  E   E  E  E
|---------------------|---------------------|
|---------------------|---------------------|
|---------------------|---------------------|
|-10--------10--------|-12--------12--------|
|----10--------10-----|----10--------10-----|
|--------0---------0--|--------0---------0--|
|
|  Q     E   Q     E     Q     E   Q     E
|--7----(7)-----------|---------------------|
|------------5----(5)-|------------5----(5)-|
|---------------------|--7----(7)-----------|
|---------------------|---------------------|
|---------------------|---------------------|
|---------------------|---------------------|


  (D)
   E Q       E Q         E Q       E Q
|---------------------|----------------------|
|---------------------|----------------------|
|------------7--------|--5---------4---------|
|----4---------4------|----4---------4\------|
|--5------------------|----------------------|
|---------------------|----------------------|
|
|  Q     E   Q     E     Q     E   Q      E
|-12---(12)-----------|-10---(10)------------|
|---------------------|----------------------|
|-----------12---(12)-|-----------12----(12)-|
|---------------------|----------------------|
|---------------------|----------------------|
|---------------------|----------------------|


  (E5/C)
   E Q       Q   +E      +Q     Q     Q
|----------------------|----------------------|
|----------------------|----------------------|
|------------4---(4)b5r|=(4)----------4\------|
|----2-----------------|--------2-------------|
|--3-------------------|----------------------|
|----------------------|----------------------|
|
|  Q     E   Q    E       Q     E   Q      E
|-12---(12)------------|-10---(10)------------|
|----------------------|----------------------|
|-----------12--(12)---|-----------12----(12)-|
|----------------------|----------------------|
|----------------------|----------------------|
|----------------------|----------------------|


  (G)            N.C.
   E Q   E  Q     E      +E   +E   +E   +E   +E
|--------------|----------------------------------|
|--------------|----------------------------------|
|-------12-----|-11b12==(11)-(11)-(11)-(11)-(11)r-|
|----9------9--|----------------------------------|
|-10-----------|----------------------------------|
|--------------|----------------------------------|
|
|  E Q   Q.       E       Q         Q.
|--------2-----|--------------------2-------------|
|----0---------|----------0-----------------------|
|--2-----------|--2-------------------------------|
|--------------|----------------------------------|
|--------------|----------------------------------|
|--------------|----------------------------------|


  (G)            N.C.
   E Q   E  Q     E      +E   +E   +E   +E   +E
|--------------|----------------------------------|
|--------------|----------------------------------|
|-------12-----|-11b12==(11)-(11)-(11)-(11)-(11)r-|
|----9------9--|----------------------------------|
|-10-----------|----------------------------------|
|--------------|----------------------------------|
|
|  E Q   Q.       E       Q         Q.
|--------2-----|--------------------2-------------|
|----0---------|----------0-----------------------|
|--2-----------|--2-------------------------------|
|--------------|----------------------------------|
|--------------|----------------------------------|
|--------------|----------------------------------|


  (G/E)                         (A5/G)
  E E E E  E E   E E E E  E E     E  E  E  Q.      E  E  E  Q.
|--------------|--------------|-----------------|-----------7\---|
|--------------|--------------|-----------------|----------------|
|-------0------|-7-----0------|------------0----|-----7----------|
|---5------5---|---5------5---|-----10----------|--9-----9-------|
|-7---7------7-|-----7------7-|-/12----12-------|----------------|
|--------------|--------------|-----------------|----------------|
|
| E Q   Q.       E Q   Q.         E  E  E  Q.      E  E  E  Q.
|-------7------|-------7------|-----------12----|----------12----|
|---8----------|---8----------|-----10----------|----10----------|
|-9------------|-9------------|--12----12-------|-12----12-------|
|--------------|--------------|-----------------|----------------|
|--------------|--------------|-----------------|----------------|
|--------------|--------------|-----------------|----------------|


 Outro
  N.C.      G  N.C.              G  N.C.
  Gtr III
                        ~~~~~~~~~~~~~~~~~~~
   H.                   H.
|--------------------|--------------------|
|--------------------|--8-----------------|
|--0-----------------|--------------------|
|--------------------|--------------------|
|--------------------|--------------------|
|--------------------|--------------------|
|
| Gtr I
|  PM----|      PM------------|      PM----
|  E   E  E  E  E  E    E   E  E  E  E  E
|--------------------|--------------------|
|--------------------|--------------------|
|--------------------|--------------------|
|------------9-------|------------9-------|
|-----------10-------|-----------10-------|
|--0---0--0-----0--0-|--0---0--0-----0--0-|
|
| Gtr II
|  PM----|      PM------------|      PM----
|  E   E  E  E  E  E    E   E  E  E  E  E
|--------------------|--------------------|
|--------------------|--------------------|
|-----------11-------|-----------11-------|
|------------9-------|------------9-------|
|-10--10-10----10-10-|-10--10-10----10-10-|
|--------------------|--------------------|


               G5 N.C.           G  N.C.
 ~~~~~~~~~~~~~~~~~~~~~~~~~~
  +H.                  +Q.        Q     E
|--------------------|-----------------------|
|-(8)----------------|-(8)--------8-----8b9r=|
|--------------------|-----------------------|
|--------------------|-----------------------|
|--------------------|-----------------------|
|--------------------|-----------------------|
|
|-----------|      PM---------|      PM|
|  E   E  E  E  E  E    E   E  E  E  E  E
|--------------------|-----------------------|
|--------------------|-----------------------|
|--------------------|-----------------------|
|--------------12----|------------9----------|
|--------------10----|-----------10----------|
|--0---0--0--0-----0-|--0---0--0-----0--0----|
|
|-----------|      PM---------|      PM|
|  E   E  E  E  E  E    E   E  E  E  E  E
|--------------------|-----------------------|
|--------------------|-----------------------|
|--------------11----|-----------11----------|
|---------------9----|------------9----------|
|-10--10-10-10----10-|-10--10-10----10-10----|
|--------------------|-----------------------|


          C   N.C.         C   N.C.
  +Q.      Q.       Q.      Q.
|-----------------|----------------|
|-(8)-------------|---------7------|
|-----------------|-0--------------|
|----------9------|----------------|
|-----------------|----------------|
|-----------------|----------------|
|
|  PM---|     PM---------|     PM---
|  E  E E  E  E E   E  E E  E  E E
|-----------------|----------------|
|-----------------|----------------|
|----------9------|---------9------|
|---------10------|--------10------|
|--0--0-0-----0-0-|-0--0-0-----0-0-|
|-----------------|----------------|
|
|  PM---|     PM---------|     PM---
|  E  E E  E  E E   E  E E  E  E E
|-----------------|----------------|
|-----------------|----------------|
|-----------------|----------------|
|---------12------|--------12------|
|---------10------|--------10------|
|--8--8-8-----8-8-|-8--8-8-----8-8-|


           C  N.C.        C
  H.              +H.
|---------------|-----------------------------|
|---------------|-----------------------------|
|---------------|-----------------------------|
|---------------|-----------------------------|
|-9-------------|-(9)-------------------------|
|---------------|-----------------------------|
|
|--------|    PM--------|
| E  E E E  E E    E  E E  E        +E   +E
|---------------|-----------------------------|
|-----------8---|-----------------------------|
|-----------9---|---------11b11.5==(11)-(11)r-|
|----------10---|---------10b10.5==(10)-(10)r-|
|-0--0-0-0----0-|--0--0-0---------------------|
|---------------|-----------------------------|
|
|--------|    PM--------|
| E  E E E  E E    E  E E  E        +E   +E
|---------------|-----------------------------|
|---------------|-----------------------------|
|---------------|-----------------------------|
|----------12---|-----------------------------|
|----------10---|----------9b9.5====(9)--(9)r-|
|-8--8-8-8----8-|--8--8-8---------------------|


  N.C.      G   N.C.              G  N.C.
   Q    +E   Q.          H.
|---------------------|--------------------|
|---------------------|--------------------|
|--9----(9)s12--------|--4-----------------|
|---------------------|--------------------|
|---------------------|--------------------|
|---------------------|--------------------|
|
|  PM---|        PM------------|      PM----
|  E  E  E   E   E  E    E   E  E  E  E  E
|---------------------|--------------------|
|---------------------|--------------------|
|---------------------|--------------------|
|------------9--------|------------9-------|
|-----------10--------|-----------10-------|
|--0--0--0-------0--0-|--0---0--0-----0--0-|
|
|  PM---|        PM------------|      PM----
|  E  E  E   E   E  E    E   E  E  E  E  E
|---------------------|--------------------|
|---------------------|--------------------|
|-----------11--------|-----------11-------|
|------------9--------|------------9-------|
|-10-10-10------10-10-|-10--10-10----10-10-|
|---------------------|--------------------|


               G5 N.C.           G   N.C.
  +H.                   Q    +E   Q.
|--------------------|---------------------|
|--------------------|---------------------|
|-(4)----------------|--7----(7)s=9--------|
|--------------------|---------------------|
|--------------------|---------------------|
|--------------------|---------------------|
|
|-----------|      PM--------|        PM|
|  E   E  E  E  E  E    E  E  E   E   E  E
|--------------------|---------------------|
|--------------------|---------------------|
|--------------------|---------------------|
|--------------12----|------------9--------|
|--------------10----|-----------10--------|
|--0---0--0--0-----0-|--0--0--0-------0--0-|
|
|-----------|      PM--------|        PM|
|  E   E  E  E  E  E    E  E  E   E   E  E
|--------------------|---------------------|
|--------------------|---------------------|
|--------------11----|-----------11--------|
|---------------9----|------------9--------|
|-10--10-10-10----10-|-10-10-10------10-10-|
|--------------------|---------------------|


          C   N.C.          C   N.C.           C  N.C.        C
  Q   +E   Q.       Q   +E   Q.       H.              +H         Q
|-----------------|-----------------|---------------|---------------*|
|-----------------|-----------------|---------------|---------------*|
|-----------------|-----------------|---------------|---------------*|
|-7---(7)s=9------|-5---(5)s=7------|-4-------------|-(4)-----------*|
|-----------------|-----------------|---------------|---------------*|
|-----------------|-----------------|---------------|---------------*|
|
| PM--|       PM--------|       PM-----------|    PM--------|
| E E  E   E  E E   E E  E   E  E E   E  E E E  E E    E  E E  E Q
|-----------------|-----------------|---------------|---------------*|
|-----------------|-----------------|-----------8---|---------------*|
|----------9------|----------9------|-----------9---|----------9----*|
|---------10------|---------10------|----------10---|---------10----*|
|-0-0--0------0-0-|-0-0--0------0-0-|-0--0-0-0----0-|--0--0-0-------*|
|-----------------|-----------------|---------------|---------------*|
|
| PM--|       PM--------|       PM-----------|    PM--------|
| E E  E   E  E E   E E  E   E  E E   E  E E E  E E    E  E E  E Q
|-----------------|-----------------|---------------|---------------*|
|-----------------|-----------------|---------------|---------------*|
|-----------------|-----------------|---------------|---------------*|
|---------12------|---------12------|----------12---|---------12----*|
|---------10------|---------10------|----------10---|---------10----*|
|-8-8--8------8-8-|-8-8--8------8-8-|-8--8-8-8----8-|--8--8-8-------*|



Duration Legend
---------------
W - whole; H - half; Q - quarter; E - 8th; S - 16th; T - 32nd; X - 64th; a - acciaccatura
+ - note tied to previous; . - note dotted; .. - note double dotted
Uncapitalized letters represent notes that are staccato (1/2 duration)
Irregular groupings are notated above the duration line
Duration letters will always appear directly above the note/fret number it represents the
duration for.  Duration letters with no fret number below them represent rests.  Multi-
bar rests are notated in the form Wxn, where n is the number of bars to rest for.  Low
melody durations appear below the staff

Tablature Legend
----------------
 h   - hammer-on
 p   - pull-off
 b   - bend
 pb  - pre-bend
 r   - bend release (if no number after the r, then release immediately)
 /\  - slide into or out of (from/to "nowhere")
 s   - legato slide
 S   - shift slide
 - natural harmonic
[n]  - artificial harmonic
n(n) - tapped harmonic
 ~   - vibrato
 tr  - trill
 T   - tap
 TP  - trem. picking
 PM  - palm muting
\n/  - tremolo bar dip; n = amount to dip
 \n  - tremolo bar down
 n/  - tremolo bar up
/n\  - tremolo bar inverted dip
 =   - hold bend; also acts as connecting device for hammers/pulls
  - volume swell (louder/softer)
 x   - on rhythm slash represents muted slash
 o   - on rhythm slash represents single note slash

Misc Legend
-----------
 |  - bar
||  - double bar
||o - repeat start
o|| - repeat end
*|  - double bar (ending)
 :  - bar (freetime)
 $  - Segno
 &  - Coda
Tempo markers -  = BPM(8/16=s8/s16), where s8 = swing 8ths, s16 = swing 16ths    

Added On December 16th, 2013

SHARE

Comments

blog comments powered by Disqus

VERSIONS

ADVERTISEMENT