City And Colour Tabs

Comin Home

2 versions

TAB

            Comin Home Tab by City And Colour


Song: Comin' Home
Composer: City and Color
Tabbed by: Brendan McLarty
Capo: 2nd Fret
Tuning: E A D G B E (Standard)

Let Ring:    ~
Stop Ring:   *
Mute String: x

Intro Riff. (Repeated Throughout The Song.)
|-0~-------------|
|-3/5-3-0--------|
|---------2/4-2-0|
|----------------|
|----------------|
|----------------|

Main Riff Repeated Through Most of The Song.(Different Rythm Variations)
|0-0-0--0--0-0*--0-0-0-0-0-0-0--0--0-0*--0-0-0-0|
|0-0-0--0--0-0*--3-3-3-0-1-1-1--1--1-1*--1-1-1-0|
|0-0-0--0--0-0*--0-0-0-0-0-0-0--0--0-0*--0-0-0-0|
|2-2-2--2--2-2*--4-4-4-0-2-2-2--2--2-2*--2-2-2-0|
|2-2-2--2--2-2*--5-5-5-0-3-3-3--3--3-3*--3-3-3-0|
|0-0-0--0--0-0*--x-x-x-0-x-x-x--x--x-x*--x-x-x-0|

Bridge Riff.(Different Rythm Variations)
|0-0-0--0~--0-0--0-0-0-0-0-0-0--0---0-0--0-0-0-0|
|3-3-3--3~--3-3--3-3-3-3-1-1-1--1---1-1--1-1-1-1|
|0-0-0--0~--0-0--0-0-0-0-0-0-0--0---0-0--0-0-0-0|
|4-4-4--4~--4-4--4-4-4-4-2-2-2--2---2-2--2-2-2-2|
|5-5-5--5~--5-5--5-5-5-5-3-3-3--3---3-3--3-3-3-3|
|x-x-x--x---x-x--x-x-x-x-x-x-x--x---x-x--x-x-x-x|    

Added On December 4th, 2013

SHARE

Comments

blog comments powered by Disqus

VERSIONS

ADVERTISEMENT