City And Colour Tabs

Constant Knot

2 versions

TAB

            verse: figure out strumming
E |----------------------|
B |----------------------|
G |-7-7-77-7--0-0-000----|
D |-7-7-77h9--5-5-555----|
G |-5-5-55-5--4-4-444----|
E |-X-X-XX-X--X-X-XXX----|

chorus: figure out strumming

E |----------------------|
B |----------------------|
G |-4-4-44----0-0-000----|
D |-0-0-00----2-2/444----|
G |-X-X-XX----2-2/444----|
E |-3-3-33----X-X-XXX----|    

Added On December 16th, 2013

SHARE

Comments

blog comments powered by Disqus

VERSIONS

ADVERTISEMENT