City And Colour Tabs

Like Knives

2 versions

TAB

            Like Knives Tab by City And Colour


-capo 4th fret-

(intro/verse 1 and 2)

|-0---0\0\0--0--0-3------------------------------|
|-2---2\5\2--0--2-0------------------------------|
|-0---0\0\0--0--0-0------------------------------|
|-0---0\0\0--0--0-0--2/4-4/5-5/7-7\5-5\4-2-2/4-0-|
|-0---0\0\0--0--0-0------------------------------|
|-0---0\0\0--0--0-0------------------------------|

(chorus)

|-5--3---3----------|
|-5--3---3----------|
|-4--2---0h2--------|
|-0--0---0----------|
|-3--1---1----------|
|-0--0---0----------|

(verse 2 the same as verse 1)

(ending)

|-3---3----|      
|-5---5----|  
|-5---5----|
|-4---5----|
|-3---3----|
|-3---3----|

then end on

|--5--|
|--5--|
|--4--|
|--0--|
|--3--|
|--0--|    

Added On December 4th, 2013

SHARE

Comments

blog comments powered by Disqus

VERSIONS

ADVERTISEMENT