City And Colour Tabs

What Makes A Man

2 versions

TAB

            Fmaj7 (133210) - G (320003) - Am (x02210)

[Rough intro]: (best played without a pick)

E |------0---------------------0--0----------|
B |-------1--1---1---1--1-1-----1---1-1-1-1--|
G |---0h2--2---------------------2-----------|
D |-------------------------0h2--------------|
A |--3--------0h2-2h3-2--0-----0---0-3-2-----|
E |---------3----------------------------3---|

E |------0---------------------0---0---0-----|
B |-------1--1---1---1--1-1------------------|
G |---0h2--2---------------------------------|
D |-------------------------0h2-0h2-0h2------|
A |--3--------0h2-2h3-2--0-------------------|
E |---------3---------------------------3----|

[Verse]:

Fmaj7         G
I can hear my train coming

Am                             G (quick)
it's a lonesome and distant cry

Fmaj7         G
I can hear my train coming

Am                         G (quick)
now I'm running for my life


[Chorus]:

Fmaj7         G
what makes a man 

     Am                  
walk away from his mind

          Fmaj7
I think I know

G         Am         G (quick)  etc.
I think I might know

[Verse]:
I can feel the wind blowing
it's sending shivers down my spine
I can feel the wind blowing
shakes the trees and the power lines

[Chorus]:
what makes a man
spend his whole life in disguise
I think I know
I think I might know

[Interlude]

[Verse]:
I can see the sun setting
it's casting shadows on the sea
I can see the sun setting
it's getting colder
starting to freeze

[Chorus]:
what makes a man
want to break a heart with ease
I think I know
I think I might know

[Verse]:
I can hear my train coming
looks like time is not on my side
I can hear my train coming
I'm still running for my life

[Chorus]:
what makes a man
pray when he's about to die
I think I know
I think I might know    

Added On December 16th, 2013

SHARE

Comments

blog comments powered by Disqus

VERSIONS

ADVERTISEMENT