Clannad Tabs

Snowfield

1 versions

TAB

            Clannad - Snowfield
Tabbed by Chelsea Intal

Standard Tuning
Capo 1

3/4 Timing
75 BPM

    
    E E E E E E   Q  Q  Q    E E E E E E   Q  Q  Q    E E E E E E
||--------------|----------|-------------|----------|-------------|
||o-2-3-0---0---|-0--------|-2-3---------|-0--------|-2-3-0---0---|
||--------2-----|----------|-----4-2-4---|----------|-------2-----|
||------------4-|-------2--|-----------4-|-------2--|-----------4-|
||o-------------|-0--4-----|-2-----------|-0--4-----|-------------|
||--3-----------|----------|-------------|----------|-3-----------|


                             1.             2.
  Q  Q  E E   E E Q    Q     Q  Q  Q        Q    Q   E E
|---------0-|-2-0-2--------|----0--------||------------|
|-0-----3-2-|-0-2-0----|-------3----o||----------------|
|-------4---|--------------|-2-----------||-2----------2---|
|-----------|--------------|-2-----------||-2--------4-----|
|-0--4------|-2------------|-0----------o||-0--------------|
|-----------|--------------|-------------||----------------|


                                              1.
    E E E E E E   E E E E E E   E E E E E E   E E E E E E   E E E E E E
||--------------|-------------|---2-0-2---2-|---0---0---0-|-5----------|
||o-0-3-2-3-0-3-|---2-0-2---2-|-0-------3---|-----2---3---|-0-3-2-3-0-3|
||----------0---|-2-------2---|-------------|-2-----------|-0-------0--|
||--------------|-------------|-------------|-------------|------------|
||o-------------|-0-----------|-2-----------|-0-----------|------------|
||--3-----------|-------------|-------------|-------------|-3----------|


                                             2.
  E E E E E E   E E E E E E   E E Q  E E     E E E E E E   E E E E E E
|---------0---|-2-----2-----|-------------||---0---0-----|-0-----------|
|---2-0-2---2-|-3---2---5-3-|-----3------o||-----2---3-2-|-0-3-2-3-0-3-|
|-2-------2---|---4---------|-----4----2--||-2-----------|-0-------0---|
|-----------2-|-------------|---2----4----||-------------|-------------|
|-0-----------|-2-----------|-0----------o||-0-----------|-------------|
|-------------|-------------|-------------||-------------|-3-----------|


  E E E E E E   E E E E E E   E E H      E E E E E E   E E Q  E E
|---0---0-----|-------2-0---|---0------|-------------|------------|
|-3---2---0---|---2-3-----3-|-----2----|-2-3-0---0---|-0----------|
|-----------2-|-4-----------|-2--------|-0---0-2-----|-----2----2-|
|-------------|-4-----------|-2--------|---0-------4-|---2----2---|
|-0-----------|-2-----------|-0--------|-------------|-0---4------|
|-------------|-------------|----------|-3-----------|------------|


  E E E E E E   E E Q  E E   E E E E E E   E E Q  E E   E E Q    Q
|-------------|------------|-------------|----------0-|-2-0-2--------|
|-2-3---------|-0----------|-2-3-0---0---|-0------3-2-|-0-2-0----|
|-----4-2-4---|-----2----2-|-0---0-2-----|-----2--4---|--------------|
|-4---------4-|---2----2---|---0-------4-|---2--------|--------------|
|-2-----------|-0---4------|-------------|-0---4------|-2------------|
|-------------|------------|-3-----------|------------|--------------|


                         |-3-|
  Q    Q   E E   E E E E S S S E   E E E E E E   E E E E E E   E E E E E E
|----------|-----------------|-------------|-----------0-|-2---0-------|
|--------------|-0---3---2h3p2---|-0-----------|-0-------0---|---------3-2-|
|-2----------2-|---------------2-|-----2-----2-|-----2-------|---2---2-----|
|-2--------4---|---0-------------|---2---2-4---|---0---0-----|-------------|
|-0------------|-----------------|-0-----------|-2-----------|-0-----------|
|--------------|-3-----3---------|-------------|-------------|-------------|


  E E Q  Q    E E Q  Q    E E Q  Q    H.        E E E E E E
|-----------|-----------|-----------|---------|-------------|
|-----0-----|-0---------|-----------|-0-------|-2-3-0---0---|
|--------2--|-----2-----|--------2--|---------|-------2-----|
|---0-------|---2----4--|-2---4-----|-2-------|-----------4-|
|-----------|-0---------|---0-------|-2-------|-------------|
|-3---------|-----------|-2---------|---------|-3-----------|


  Q  Q  E E   E E E E E E   Q  Q  E E   E E E E E E   Q  Q  E E
|-----------|-------------|-----------|-------------|---------0-|
|-0---------|-2-3---------|-0---------|-2-3-0---0---|-0-----3-2-|
|---------2-|-----4-2-4---|---------2-|-------2-----|-------4---|
|-------2---|-----------4-|-------2---|-----------4-|-----------|
|-0--4------|-2-----------|-0--4------|-------------|-0--4------|
|-----------|-------------|-----------|-3-----------|-----------|


  E E Q    Q     Q  Q  Q    H.
|-2-0-2--------|----0----|--------|
|-0-2-0----|-------3-|--------|
|--------------|-2-------|-^4-----|
|--------------|-2-------|-^4-----|
|-2------------|-0-------|-^2-----|
|--------------|---------|--------|    

Added On March 14th, 2014

SHARE

Comments

blog comments powered by Disqus

ADVERTISEMENT