Clint Mansell Tabs

Supermarket Sweep

1 versions

TAB

            Song: Supermarket Sweep
Composer: Clint Mansell
Soundtrack: Requiem for a Dream
Tuning: Drop D


|--------------------------------| 
|--------------------------------|
|--------------------------------|
|-5------------------------------| 
|-5------------------------------|
|-5------------------------------|

Swell
2x
|--------------------------------------------------| 
|--------------------------------------------------|
|--------------------------------------------------|
|--------------------------------------------------| 
|--------------------------------------------------|
|-3--/5--5----5--5--8-5-8----5--5----5--5--3-5-3---|

Synthesizer
3x
|--------------------------------| 
|--------------------------------|
|--------------------------------|
|--------------------------------| 
|--------------------------------|
|-5---5---5---5---5---5---5---5--|

Main Riff
2x
|-------------------------------------------------| 
|-------------------------------------------------|
|-------------------------------------------------|
|-------------------------------------------------| 
|-------------------------------------------------|
|-5---8-5-8--5---8-5-8--5---8-5-8--5---8-5-8--5---|

|-------------------------------------------------| 
|-------------------------------------------------|
|-------------------------------------------------|
|-------------------------------------------------| 
|-------------------------------------------------|
|-8-5-8--5---8-5-8--5---8-5-8--5---3-5-3----------|

After the short break repeat the Main Riff again and yer done.    

Added On December 16th, 2013

SHARE

Comments

blog comments powered by Disqus

ADVERTISEMENT