Coal Chamber Tabs

Big Truck

5 versions

TAB

            Big Truck Tab by Coal Chamber



        GUITAR TABLATURE ONLINE

          URL: www.angelfire.com/bc/tablature
	EMAIL: tablature@canada.com

 ----------------------------------------------------------------------------------------------

	     SONG: Big Truck
	     BAND: Coal Chamber
	    ALBUM: Coal Chamber
   TRANSCRIBED BY: Unknown
	     DATE: Unknown

 ----------------------------------------------------------------------------------------------

	TUNING: tune your guitar down 1.5 steps and then drop d (B,F#,B,E,G#,C#)


     INTRO: (palm muted)

   C#|--------------------------------------------------------------|
   G#|--------------------------------------------------------------|
    E|--------------------------------------------------------------|
    B|--------------------------------------------------------------|
   F#|-----------------------------------------------------------3--|
    B|--0-0-0-6-0--0-0--0-0-6-0-0-6-6--0-0-0-6-0--0-0--0-0-6-0-0-3--|

     MAIN RIFF:

   C#|--------------------------------------------------------------|
   G#|--------------------------------------------------------------|
    E|--------------------------------------------------------------|
    B|--0-0-0-6-0--0-0--0-0-6-0-0-6-6--0-0-0-6-0--0-0--0-0-6-0-0-3--|
   F#|--0-0-0-6-0--0-0--0-0-6-0-0-6-6--0-0-0-6-0--0-0--0-0-6-0-0-3--|
    B|--0-0-0-6-0--0-0--0-0-6-0-0-6-6--0-0-0-6-0--0-0--0-0-6-0-0-3--|

     PRE-CHORUS: (where Dez goes "Motion! Move It! I Said Move!")

   C#|----------------------------------|
   G#|------3---------3--------------3--|
    E|------2---------2--------------2--|
    B|----------------------------------|
   F#|----------------------------------|
    B|--0-------0-0-------0-0--0-0------|

     CHORUS: (where Dez goes "Big Truck")

   C#|-----------------|
   G#|-----------------|
    E|-----------------|
    B|------6-------6--|
   F#|------5-------5--|
    B|--0-------0------|    

Added On December 4th, 2013

SHARE

Comments

blog comments powered by Disqus

VERSIONS

ADVERTISEMENT