Coheed And Cambria Tabs

Neverender

8 versions

TAB

            Neverender Tab by Coheed And Cambria


Tabbed by:coheedandnofx6
AIM: Warxall0thextime

Tuning: Standard

Hey this is only Travis' part for the song. I saw the other tabs had no lead
at all so here it is. The only part im not sure about is the intro. The othep
parts are almost 100% correct.

                ::INTRO:: 
e|----------------------------------------------|
B|-------------------4-5-4-0--------------------|
G|---6-6-8-8-4-4-2-2----------------------------|
D|---4-4-4-4-0-0-0-0----------------------------|
A|----------------------------------------------|
E|----------------------------------------------|
                ::VERSE::
e|----------------------------------------------|
B|-----4---4---5---4------4-----4---------------|
G|--------------------4-6---4-6----6-4---6-4----|
D|-------------------------------------6-----6--|
A|---0---0---0---0------------------------------|
E|----------------------------------------------|
                ::CHORUS::
e|----------------------------------------------|
B|---5~--6-4---4------5p4---6-4---4-------------|
G|-----------6---6-4------6-----6---6-4---------|
D|----------------------------------------------|
A|----------------------------------------------|
E|----------------------------------------------|
     "Point your gun in another direction..."
e|----------------------------------------------|
B|------16-17~-----18-17~-----------------------|
G|---17---------18------------------------------|
D|----------------------------------------------|
A|----------------------------------------------|
E|----------------------------------------------|

PLEASE RATE    

Added On December 4th, 2013

SHARE

Comments

blog comments powered by Disqus