Coldplay Tabs

Life In Technicolor

2 versions

TAB

            Life In Technicolor - Coldplay
-------------------------------------------------------------------------------
Tabbed by:Frankie Tsai (Magnetozire)
Email:magneto@tm.net.my

Tuning:Standard
Key : A 
This is the guitar solo for the intro and outtro



e|-------------------------------------------------------------------------|
B|-------2--5-------------5-5-3p2------------------------------------------|
G|-2h4p2------2--2h4p2-----------------------------------------------------|
D|-------------------------------------------------------------------------|
A|-------------------------------------------------------------------------|
E|-------------------------------------------------------------------------|

e|------------------------4-4----------------------------------------------|
B|-------2--5-----------------3p2------------------------------------------|
G|-2h4p2------2--2h4p2-----------------------------------------------------|
D|-------------------------------------------------------------------------|
A|-------------------------------------------------------------------------|
E|-------------------------------------------------------------------------|


play tru out until the (chorus) 

e|-------------------------------------------------------------------------|
B|-------2--------------------2--------------------------------------------|
G|-2h4p2----2h4---2h4p2----2-----------------------------------------------|
D|-------------------------------------------------------------------------|
A|-------------------------------------------------------------------------|
E|-------------------------------------------------------------------------|

play this till the end.

Great song by coldplay as always



| /  slide up
| \  slide down
| h  hammer-on
| p  pull-off
| ~  vibrato
| +  harmonic
| x  Mute note    

Added On December 16th, 2013

SHARE

Comments

blog comments powered by Disqus

VERSIONS

ADVERTISEMENT