Coldplay Tabs

Postcards From Far Away Intro

1 versions

TAB

            Postcards From Far Away by Coldplay
e|------------------------------------|
B|---------------1---3-----------1----|
G|-------2---3-----------2---3--------|
D|-----3---3---3---3---3---3---3------|
A|-1-----------------1----------------|
E|------------------------------------|

e|------------------------------------|
B|---------------1---3---4------------|
G|-------2---3---------------2---3----|
D|-1---3---3---3---3-1-3---3---3------|
A|------------------------------------|
E|------------------------------------|

e|------------------------------------|
B|---------------1---3-----------1----|
G|-------2---3-----------2---3--------|
D|-----3---3---3---3---3---3---3------|
A|-1-----------------1----------------|
E|------------------------------------|    

Added On December 16th, 2013

SHARE

Comments

blog comments powered by Disqus

ADVERTISEMENT